  0
SECTION
  2
HEADER
  9
$ACADVER
  1
AC1014
  9
$ACADMAINTVER
 70
     0
  9
$DWGCODEPAGE
  3
ANSI_1252
  9
$INSBASE
 10
0.0
 20
0.0
 30
0.0
  9
$EXTMIN
 10
0.0
 20
0.0
 30
0.0
  9
$EXTMAX
 10
8400.0
 20
5940.0
 30
2.0
  9
$LIMMIN
 10
0.0
 20
0.0
  9
$LIMMAX
 10
420.0
 20
297.0
  9
$ORTHOMODE
 70
     0
  9
$REGENMODE
 70
     1
  9
$FILLMODE
 70
     1
  9
$QTEXTMODE
 70
     0
  9
$MIRRTEXT
 70
     1
  9
$DRAGMODE
 70
     2
  9
$LTSCALE
 40
1.0
  9
$OSMODE
 70
     0
  9
$ATTMODE
 70
     1
  9
$TEXTSIZE
 40
2.5
  9
$TRACEWID
 40
1.0
  9
$TEXTSTYLE
  7
STANDARD
  9
$CLAYER
  8
0
  9
$CELTYPE
  6
BYLAYER
  9
$CECOLOR
 62
   256
  9
$CELTSCALE
 40
1.0
  9
$DELOBJ
 70
     1
  9
$DISPSILH
 70
     0
  9
$DIMSCALE
 40
1.0
  9
$DIMASZ
 40
2.5
  9
$DIMEXO
 40
0.625
  9
$DIMDLI
 40
3.75
  9
$DIMRND
 40
0.0
  9
$DIMDLE
 40
0.0
  9
$DIMEXE
 40
1.25
  9
$DIMTP
 40
0.0
  9
$DIMTM
 40
0.0
  9
$DIMTXT
 40
2.5
  9
$DIMCEN
 40
2.5
  9
$DIMTSZ
 40
0.0
  9
$DIMTOL
 70
     0
  9
$DIMLIM
 70
     0
  9
$DIMTIH
 70
     0
  9
$DIMTOH
 70
     0
  9
$DIMSE1
 70
     0
  9
$DIMSE2
 70
     0
  9
$DIMTAD
 70
     1
  9
$DIMZIN
 70
     8
  9
$DIMBLK
  1

  9
$DIMASO
 70
     1
  9
$DIMSHO
 70
     1
  9
$DIMPOST
  1

  9
$DIMAPOST
  1

  9
$DIMALT
 70
     0
  9
$DIMALTD
 70
     3
  9
$DIMALTF
 40
0.03937
  9
$DIMLFAC
 40
1.0
  9
$DIMTOFL
 70
     1
  9
$DIMTVP
 40
0.0
  9
$DIMTIX
 70
     0
  9
$DIMSOXD
 70
     0
  9
$DIMSAH
 70
     0
  9
$DIMBLK1
  1

  9
$DIMBLK2
  1

  9
$DIMSTYLE
  2

  9
$DIMCLRD
 70
     0
  9
$DIMCLRE
 70
     0
  9
$DIMCLRT
 70
     0
  9
$DIMTFAC
 40
1.0
  9
$DIMGAP
 40
0.625
  9
$DIMJUST
 70
     0
  9
$DIMSD1
 70
     0
  9
$DIMSD2
 70
     0
  9
$DIMTOLJ
 70
     0
  9
$DIMTZIN
 70
     8
  9
$DIMALTZ
 70
     0
  9
$DIMALTTZ
 70
     0
  9
$DIMFIT
 70
     0
  9
$DIMUPT
 70
     0
  9
$DIMUNIT
 70
     2
  9
$DIMDEC
 70
     2
  9
$DIMTDEC
 70
     2
  9
$DIMALTU
 70
     2
  9
$DIMALTTD
 70
     3
  9
$DIMTXSTY
  7
STANDARD
  9
$DIMAUNIT
 70
     0
  9
$LUNITS
 70
     2
  9
$LUPREC
 70
     4
  9
$SKETCHINC
 40
1.0
  9
$FILLETRAD
 40
2.5
  9
$AUNITS
 70
     0
  9
$AUPREC
 70
     0
  9
$MENU
  1
.
  9
$ELEVATION
 40
0.0
  9
$PELEVATION
 40
0.0
  9
$THICKNESS
 40
0.0
  9
$LIMCHECK
 70
     0
  9
$BLIPMODE
 70
     1
  9
$CHAMFERA
 40
2.5
  9
$CHAMFERB
 40
2.5
  9
$CHAMFERC
 40
0.0
  9
$CHAMFERD
 40
0.0
  9
$SKPOLY
 70
     0
  9
$TDCREATE
 40
0.000000000
  9
$TDUPDATE
 40
0.000000000
  9
$TDINDWG
 40
0.0000000000
  9
$TDUSRTIMER
 40
0.0000000000
  9
$USRTIMER
 70
     1
  9
$ANGBASE
 50
0.0
  9
$ANGDIR
 70
     0
  9
$PDMODE
 70
     0
  9
$PDSIZE
 40
0.0
  9
$PLINEWID
 40
0.0
  9
$COORDS
 70
     0
  9
$SPLFRAME
 70
     0
  9
$SPLINETYPE
 70
     6
  9
$SPLINESEGS
 70
     8
  9
$ATTDIA
 70
     0
  9
$ATTREQ
 70
     1
  9
$HANDLING
 70
     1
  9
$HANDSEED
  5
D28
  9
$SURFTAB1
 70
     6
  9
$SURFTAB2
 70
     6
  9
$SURFTYPE
 70
     6
  9
$SURFU
 70
     6
  9
$SURFV
 70
     6
  9
$UCSNAME
  2

  9
$UCSORG
 10
0.0
 20
0.0
 30
0.0
  9
$UCSXDIR
 10
1.0
 20
0.0
 30
0.0
  9
$UCSYDIR
 10
0.0
 20
1.0
 30
0.0
  9
$PUCSNAME
  2

  9
$PUCSORG
 10
0.0
 20
0.0
 30
0.0
  9
$PUCSXDIR
 10
1.0
 20
0.0
 30
0.0
  9
$PUCSYDIR
 10
0.0
 20
1.0
 30
0.0
  9
$USERI1
 70
     0
  9
$USERI2
 70
     0
  9
$USERI3
 70
     0
  9
$USERI4
 70
     0
  9
$USERI5
 70
     0
  9
$USERR1
 40
0.0
  9
$USERR2
 40
0.0
  9
$USERR3
 40
0.0
  9
$USERR4
 40
0.0
  9
$USERR5
 40
0.0
  9
$WORLDVIEW
 70
     1
  9
$SHADEDGE
 70
     3
  9
$SHADEDIF
 70
    70
  9
$TILEMODE
 70
     1
  9
$MAXACTVP
 70
    48
  9
$PINSBASE
 10
0.0
 20
0.0
 30
0.0
  9
$PLIMCHECK
 70
     0
  9
$PEXTMIN
 10
0.0
 20
0.0
 30
0.0
  9
$PEXTMAX
 10
8400.0
 20
5940.0
 30
2.0
  9
$PLIMMIN
 10
0.0
 20
0.0
  9
$PLIMMAX
 10
420.0
 20
297.0
  9
$UNITMODE
 70
     0
  9
$VISRETAIN
 70
     0
  9
$PLINEGEN
 70
     0
  9
$PSLTSCALE
 70
     1
  9
$TREEDEPTH
 70
  3020
  9
$PICKSTYLE
 70
     1
  9
$CMLSTYLE
  2
STANDARD
  9
$CMLJUST
 70
     0
  9
$CMLSCALE
 40
20.0
  9
$PROXYGRAPHICS
 70
     1
  9
$MEASUREMENT
 70
     1
  0
ENDSEC
  0
SECTION
  2
CLASSES
  0
CLASS
  1
LWPOLYLINE
  2
AcDbPolyline
  3
"AutoCAD"
 90
        0
280
     0
281
     1
  0
CLASS
  1
IMAGE
  2
AcDbRasterImage
  3
ISM
 90
      127
280
     0
281
     1
  0
CLASS
  1
OLE2FRAME
  2
AcDbOle2Frame
  3
""
 90
        0
280
     0
281
     1
  0
CLASS
  1
HATCH
  2
AcDbHatch
  3
"ACAD_SEDONA"
 90
        0
280
     0
281
     1
  0
CLASS
  1
DICTIONARYVAR
  2
AcDbDictionaryVar
  3
"AutoCAD"
 90
        0
280
     0
281
     0
  0
CLASS
  1
RASTERVARIABLES
  2
AcDbRasterVariables
  3
ISM
 90
        0
280
     0
281
     0
  0
CLASS
  1
IMAGEDEF
  2
AcDbRasterImageDef
  3
ISM
 90
        0
280
     0
281
     0
  0
CLASS
  1
IMAGEDEF_REACTOR
  2
AcDbRasterImageDefReactor
  3
ISM
 90
        1
280
     0
281
     0
  0
CLASS
  1
IDBUFFER
  2
AcDbIdBuffer
  3
"Acad"
 90
        0
280
     0
281
     0
  0
CLASS
  1
SPATIAL_FILTER
  2
AcDbSpatialFilter
  3
"Acad"
 90
        0
280
     0
281
     0
  0
CLASS
  1
XRECORD
  2
AcDbXrecord
  3
"<Built In>"
 90
        0
280
     0
281
     0
  0
CLASS
  1
SORTENTSTABLE
  2
AcDbSortentsTable
  3
"AutoCAD"
 90
        0
280
     0
281
     0
  0
CLASS
  1
LAYER_INDEX
  2
AcDbLayerIndex
  3
"Acad"
 90
        0
280
     0
281
     0
  0
CLASS
  1
SPATIAL_INDEX
  2
AcDbSpatialIndex
  3
"Acad"
 90
        0
280
     0
281
     0
  0
CLASS
  1
OBJECT_PTR
  2
CAseDLPNTableRecord
  3
"ASE-LPNTableRecord"
 90
        1
280
     0
281
     0
  0
CLASS
  1
LAYOUT
  2
AcDbLayout
  3
"AutoCAD 2000"
 90
        0
280
     0
281
     0
  0
CLASS
  1
PLOTSETTINGS
  2
AcDbPlotSettings
  3
"AutoCAD 2000"
 90
        0
280
     0
281
     0
  0
CLASS
  1
ACDBDICTIONARYWDFLT
  2
AcDbDictionaryWithDefault
  3
"AutoCAD 2000"
 90
        0
280
     0
281
     0
  0
CLASS
  1
ACDBPLACEHOLDER
  2
AcDbPlaceHolder
  3
"AutoCAD 2000"
 90
        0
280
     0
281
     0
  0
CLASS
  1
VBA_PROJECT
  2
AcDbVbaProject
  3
"acadvba"
 90
        0
280
     0
281
     0
  0
CLASS
  1
WIPEOUT
  2
AcDbWipeout
  3
WipeOut|AutoCAD Express Tool|expresstools@autodesk.com
 90
      127
280
     0
281
     1
  0
CLASS
  1
WIPEOUTVARIABLES
  2
AcDbWipeoutVariables
  3
WipeOut|AutoCAD Express Tool|expresstools@autodesk.com
 90
        0
280
     0
281
     0
  0
CLASS
  1
RTEXT
  2
RText
  3
RText|AutoCAD Express Tool|expresstools@autodesk.com
 90
        0
280
     0
281
     1
  0
CLASS
  1
ARCALIGNEDTEXT
  2
AcDbArcAlignedText
  3
ATEXT|AutoCAD Express Tool|expresstools@autodesk.com
 90
        0
280
     0
281
     1
  0
ENDSEC
  0
SECTION
  2
TABLES
  0
TABLE
  2
VPORT
  5
7
100
AcDbSymbolTable
 70
     1
  0
VPORT
  5
15
100
AcDbSymbolTableRecord
100
AcDbViewportTableRecord
  2
*ACTIVE
 70
     0
 10
0.0
 20
0.0
 11
1.0
 21
1.0
 12
6.591288
 22
4.579184
 13
0.0
 23
0.0
 14
1.0
 24
1.0
 15
0.0
 25
0.0
 16
0.0
 26
0.0
 36
1.0
 17
0.0
 27
0.0
 37
0.0
 40
9.158369
 41
0.688564
 42
50.0
 43
0.0
 44
0.0
 50
0.0
 51
0.0
 71
     0
 72
   100
 73
     1
 74
     1
 75
     0
 76
     0
 77
     0
 78
     0
  0
ENDTAB
  0
TABLE
  2
LTYPE
  5
4
100
AcDbSymbolTable
 70
     4
  0
LTYPE
  5
11
100
AcDbSymbolTableRecord
100
AcDbLinetypeTableRecord
  2
BYBLOCK
 70
    64
  3

 72
    65
 73
     0
 40
0.0
  0
LTYPE
  5
12
100
AcDbSymbolTableRecord
100
AcDbLinetypeTableRecord
  2
BYLAYER
 70
    64
  3

 72
    65
 73
     0
 40
0.0
  0
LTYPE
  5
13
100
AcDbSymbolTableRecord
100
AcDbLinetypeTableRecord
  2
CONTINUOUS
 70
    64
  3
Solid line
 72
    65
 73
     0
 40
0.0
  0
LTYPE
  5
1D
100
AcDbSymbolTableRecord
100
AcDbLinetypeTableRecord
  2
DASHDOT
 70
     0
  3
 __ . __ . __ . __ . __ . __ . __ . 
 72
    65
 73
     4
 40
18.5
 49
12.0
 74
     0
 49
-3.0
 74
     0
 49
0.5
 74
     0
 49
-3.0
 74
     0
  0
ENDTAB
  0
TABLE
  2
LAYER
  5
2
100
AcDbSymbolTable
 70
     1
  0
LAYER
  5
14
100
AcDbSymbolTableRecord
100
AcDbLayerTableRecord
  2
0
 70
     0
 62
     7
  6
CONTINUOUS
  0
ENDTAB
  0
TABLE
  2
STYLE
  5
3
100
AcDbSymbolTable
 70
     1
  0
STYLE
  5
17
100
AcDbSymbolTableRecord
100
AcDbTextStyleTableRecord
  2
STANDARD
 70
     0
 40
0.0
 41
1.0
 50
0.0
 71
     0
 42
0.0
  3
txt
  4

  0
ENDTAB
  0
TABLE
  2
VIEW
  5
5
100
AcDbSymbolTable
 70
     0
  0
ENDTAB
  0
TABLE
  2
UCS
  5
6
100
AcDbSymbolTable
 70
     0
  0
ENDTAB
  0
TABLE
  2
APPID
  5
8
100
AcDbSymbolTable
 70
     1
  0
APPID
  5
16
100
AcDbSymbolTableRecord
100
AcDbRegAppTableRecord
  2
ACAD
 70
     0
  0
ENDTAB
  0
TABLE
  2
DIMSTYLE
  5
9
100
AcDbSymbolTable
 70
     1
  0
DIMSTYLE
105
18
100
AcDbSymbolTableRecord
100
AcDbDimStyleTableRecord
  2
STANDARD
 70
     0
  3

  4

  5

  6

  7

 40
1.0
 41
0.18
 42
0.0625
 43
0.38
 44
0.18
 45
0.0
 46
0.0
 47
0.0
 48
0.0
 71
     0
 72
     0
 73
     1
 74
     1
 75
     0
 76
     0
 77
     0
 78
     0
140
0.18
141
0.09
142
0.0
143
25.4
144
1.0
145
0.0
146
1.0
147
0.09
170
     0
171
     2
172
     0
173
     0
174
     0
175
     0
176
     0
177
     0
178
     0
270
     2
271
     4
272
     4
273
     2
274
     2
275
     0
280
     0
281
     0
282
     0
283
     1
284
     0
285
     0
286
     0
287
     3
288
     0
340
17
  0
ENDTAB
  0
TABLE
  2
BLOCK_RECORD
  5
1
100
AcDbSymbolTable
 70
     0
  0
BLOCK_RECORD
  5
A
100
AcDbSymbolTableRecord
100
AcDbBlockTableRecord
  2
*MODEL_SPACE
  0
BLOCK_RECORD
  5
B
100
AcDbSymbolTableRecord
100
AcDbBlockTableRecord
  2
*PAPER_SPACE
  0
ENDTAB
  0
ENDSEC
  0
SECTION
  2
BLOCKS
  0
BLOCK
  5
D
100
AcDbEntity
  8
0
100
AcDbBlockBegin
  2
*MODEL_SPACE
 70
     0
 10
0.0
 20
0.0
 30
0.0
  3
*MODEL_SPACE
  1

  0
ENDBLK
  5
E
100
AcDbEntity
  8
0
100
AcDbBlockEnd
  0
BLOCK
  5
F
100
AcDbEntity
 67
     1
  8
0
100
AcDbBlockBegin
  2
*PAPER_SPACE
 70
     0
 10
0.0
 20
0.0
 30
0.0
  3
*PAPER_SPACE
  1

  0
ENDBLK
  5
10
100
AcDbEntity
 67
     1
  8
0
100
AcDbBlockEnd
  0
ENDSEC
  0
SECTION
  2
ENTITIES
  0
VIEWPORT
  5
D27
100
AcDbEntity
 67
     1
  8
0
 62
     0
 48
0.0
100
AcDbViewport
 10
0.0
 20
0.0
 30
0.0
 40
1000.0
 41
1000.0
 68
     1
 69
     1
1001
ACAD
1000
MVIEW
1002
{
1070
    16
1010
0.0
1020
0.0
1030
0.0
1010
0.0
1020
0.0
1030
1.0
1040
0.0
1040
1000.0
1040
0.0
1040
0.0
1040
50.0
1040
0.0
1040
0.0
1070
     0
1070
   100
1070
     1
1070
     1
1070
     0
1070
     0
1070
     0
1070
     0
1040
0.0
1040
0.0
1040
0.0
1040
1.0
1040
1.0
1040
1.0
1040
1.0
1070
     0
1002
{
1002
}
1002
}
  0
POLYLINE
  5
1E
100
AcDbEntity
  8
0
 62
     7
100
AcDb2dPolyline
 66
     1
 10
0.0
 20
0.0
 30
0.0
 71
     5
  0
VERTEX
  5
1F
100
AcDbEntity
  8
0
100
AcDbVertex
100
AcDb2dVertex
 10
7467.540527
 20
329.068726
 30
0.0
  0
VERTEX
  5
20
100
AcDbEntity
  8
0
100
AcDbVertex
100
AcDb2dVertex
 10
7476.290527
 20
259.068695
 30
0.0
  0
VERTEX
  5
21
100
AcDbEntity
  8
0
100
AcDbVertex
100
AcDb2dVertex
 10
7486.790039
 20
287.068695
 30
0.0
  0
VERTEX
  5
22
100
AcDbEntity
  8
0
100
AcDbVertex
100
AcDb2dVertex
 10
7497.290039
 20
259.068695
 30
0.0
  0
VERTEX
  5
23
100
AcDbEntity
  8
0
100
AcDbVertex
100
AcDb2dVertex
 10
7506.040039
 20
329.068726
 30
0.0
  0
SEQEND
  5
24
100
AcDbEntity
  8
0
  0
POLYLINE
  5
25
100
AcDbEntity
  8
0
 62
     7
100
AcDb2dPolyline
 66
     1
 10
0.0
 20
0.0
 30
0.0
 71
     4
  0
VERTEX
  5
26
100
AcDbEntity
  8
0
100
AcDbVertex
100
AcDb2dVertex
 10
7551.540527
 20
259.068695
 30
0.0
  0
VERTEX
  5
27
100
AcDbEntity
  8
0
100
AcDbVertex
100
AcDb2dVertex
 10
7538.415527
 20
329.068726
 30
0.0
  0
VERTEX
  5
28
100
AcDbEntity
  8
0
100
AcDbVertex
100
AcDb2dVertex
 10
7526.165039
 20
329.068726
 30
0.0
  0
VERTEX
  5
29
100
AcDbEntity
  8
0
100
AcDbVertex
100
AcDb2dVertex
 10
7513.040039
 20
259.068695
 30
0.0
  0
SEQEND
  5
2A
100
AcDbEntity
  8
0
  0
LINE
  5
2B
100
AcDbEntity
  8
0
 62
     7
100
AcDbLine
 10
7518.290527
 20
287.068695
 30
0.0
 11
7546.290527
 21
287.068695
 31
0.0
210
0.0
220
0.0
230
1.0
  0
POLYLINE
  5
2C
100
AcDbEntity
  8
0
 62
     7
100
AcDb2dPolyline
 66
     1
 10
0.0
 20
0.0
 30
0.0
 71
     3
  0
VERTEX
  5
2D
100
AcDbEntity
  8
0
100
AcDbVertex
100
AcDb2dVertex
 10
7558.540039
 20
329.068726
 30
0.0
  0
VERTEX
  5
2E
100
AcDbEntity
  8
0
100
AcDbVertex
100
AcDb2dVertex
 10
7577.790527
 20
259.068695
 30
0.0
  0
VERTEX
  5
2F
100
AcDbEntity
  8
0
100
AcDbVertex
100
AcDb2dVertex
 10
7597.040527
 20
329.068726
 30
0.0
  0
SEQEND
  5
30
100
AcDbEntity
  8
0
  0
LINE
  5
31
100
AcDbEntity
  8
0
 62
     7
100
AcDbLine
 10
7607.540527
 20
287.068695
 30
0.0
 11
7639.040527
 21
287.068695
 31
0.0
210
0.0
220
0.0
230
1.0
  0
LINE
  5
32
100
AcDbEntity
  8
0
 62
     7
100
AcDbLine
 10
7649.540527
 20
259.068695
 30
0.0
 11
7649.540527
 21
329.068726
 31
0.0
210
0.0
220
0.0
230
1.0
  0
LINE
  5
33
100
AcDbEntity
  8
0
 62
     7
100
AcDbLine
 10
7649.540527
 20
296.402039
 30
0.0
 11
7688.040527
 21
296.402039
 31
0.0
210
0.0
220
0.0
230
1.0
  0
LINE
  5
34
100
AcDbEntity
  8
0
 62
     7
100
AcDbLine
 10
7688.040527
 20
329.068726
 30
0.0
 11
7688.040527
 21
259.068695
 31
0.0
210
0.0
220
0.0
230
1.0
  0
POLYLINE
  5
35
100
AcDbEntity
  8
0
 62
     7
100
AcDb2dPolyline
 66
     1
 10
0.0
 20
0.0
 30
0.0
 70
     1
 71
     8
  0
VERTEX
  5
36
100
AcDbEntity
  8
0
100
AcDbVertex
100
AcDb2dVertex
 10
7695.040527
 20
273.068695
 30
0.0
  0
VERTEX
  5
37
100
AcDbEntity
  8
0
100
AcDbVertex
100
AcDb2dVertex
 10
7705.540527
 20
259.068695
 30
0.0
  0
VERTEX
  5
38
100
AcDbEntity
  8
0
100
AcDbVertex
100
AcDb2dVertex
 10
7723.040527
 20
259.068695
 30
0.0
  0
VERTEX
  5
39
100
AcDbEntity
  8
0
100
AcDbVertex
100
AcDb2dVertex
 10
7733.540039
 20
273.068695
 30
0.0
  0
VERTEX
  5
3A
100
AcDbEntity
  8
0
100
AcDbVertex
100
AcDb2dVertex
 10
7733.540039
 20
315.068665
 30
0.0
  0
VERTEX
  5
3B
100
AcDbEntity
  8
0
100
AcDbVertex
100
AcDb2dVertex
 10
7723.040527
 20
329.068726
 30
0.0
  0
VERTEX
  5
3C
100
AcDbEntity
  8
0
100
AcDbVertex
100
AcDb2dVertex
 10
7705.540527
 20
329.068726
 30
0.0
  0
VERTEX
  5
3D
100
AcDbEntity
  8
0
100
AcDbVertex
100
AcDb2dVertex
 10
7695.040527
 20
315.068665
 30
0.0
  0
SEQEND
  5
3E
100
AcDbEntity
  8
0
  0
POLYLINE
  5
3F
100
AcDbEntity
  8
0
 62
     7
100
AcDb2dPolyline
 66
     1
 10
0.0
 20
0.0
 30
0.0
 71
     7
  0
VERTEX
  5
40
100
AcDbEntity
  8
0
100
AcDbVertex
100
AcDb2dVertex
 10
7740.540527
 20
259.068695
 30
0.0
  0
VERTEX
  5
41
100
AcDbEntity
  8
0
100
AcDbVertex
100
AcDb2dVertex
 10
7740.540527
 20
329.068726
 30
0.0
  0
VERTEX
  5
42
100
AcDbEntity
  8
0
100
AcDbVertex
100
AcDb2dVertex
 10
7772.040527
 20
329.068726
 30
0.0
  0
VERTEX
  5
43
100
AcDbEntity
  8
0
100
AcDbVertex
100
AcDb2dVertex
 10
7779.040527
 20
319.735352
 30
0.0
  0
VERTEX
  5
44
100
AcDbEntity
  8
0
100
AcDbVertex
100
AcDb2dVertex
 10
7779.040527
 20
301.068695
 30
0.0
  0
VERTEX
  5
45
100
AcDbEntity
  8
0
100
AcDbVertex
100
AcDb2dVertex
 10
7772.040527
 20
291.735352
 30
0.0
  0
VERTEX
  5
46
100
AcDbEntity
  8
0
100
AcDbVertex
100
AcDb2dVertex
 10
7740.540527
 20
291.735352
 30
0.0
  0
SEQEND
  5
47
100
AcDbEntity
  8
0
  0
LINE
  5
48
100
AcDbEntity
  8
0
 62
     7
100
AcDbLine
 10
7765.040527
 20
291.735352
 30
0.0
 11
7779.040527
 21
259.068695
 31
0.0
210
0.0
220
0.0
230
1.0
  0
POLYLINE
  5
49
100
AcDbEntity
  8
0
 62
     7
100
AcDb2dPolyline
 66
     1
 10
0.0
 20
0.0
 30
0.0
 71
     4
  0
VERTEX
  5
4A
100
AcDbEntity
  8
0
100
AcDbVertex
100
AcDb2dVertex
 10
7786.040039
 20
259.068695
 30
0.0
  0
VERTEX
  5
4B
100
AcDbEntity
  8
0
100
AcDbVertex
100
AcDb2dVertex
 10
7786.040039
 20
329.068726
 30
0.0
  0
VERTEX
  5
4C
100
AcDbEntity
  8
0
100
AcDbVertex
100
AcDb2dVertex
 10
7824.540527
 20
259.068695
 30
0.0
  0
VERTEX
  5
4D
100
AcDbEntity
  8
0
100
AcDbVertex
100
AcDb2dVertex
 10
7824.540527
 20
329.068726
 30
0.0
  0
SEQEND
  5
4E
100
AcDbEntity
  8
0
  0
LINE
  5
4F
100
AcDbEntity
  8
0
 62
     7
100
AcDbLine
 10
4700.000488
 20
220.000015
 30
0.0
 11
8200.000977
 21
220.000015
 31
0.0
210
0.0
220
0.0
230
1.0
  0
LINE
  5
50
100
AcDbEntity
  8
0
 62
     7
100
AcDbLine
 10
4700.000488
 20
220.000015
 30
0.0
 11
8200.000977
 21
220.000015
 31
0.0
210
0.0
220
0.0
230
1.0
  0
LINE
  5
51
100
AcDbEntity
  8
0
 62
     7
100
AcDbLine
 10
4700.000488
 20
220.000015
 30
0.0
 11
8200.000977
 21
220.000015
 31
0.0
210
0.0
220
0.0
230
1.0
  0
LINE
  5
52
100
AcDbEntity
  8
0
 62
     7
100
AcDbLine
 10
7100.000488
 20
540.000061
 30
0.0
 11
7100.000488
 21
220.000015
 31
0.0
210
0.0
220
0.0
230
1.0
  0
LINE
  5
53
100
AcDbEntity
  8
0
 62
     7
100
AcDbLine
 10
7100.000488
 20
540.000061
 30
0.0
 11
8200.000977
 21
540.000061
 31
0.0
210
0.0
220
0.0
230
1.0
  0
LINE
  5
54
100
AcDbEntity
  8
0
 62
     7
100
AcDbLine
 10
7100.000488
 20
380.000031
 30
0.0
 11
8200.000977
 21
380.000031
 31
0.0
210
0.0
220
0.0
230
1.0
  0
LINE
  5
55
100
AcDbEntity
  8
0
 62
     7
100
AcDbLine
 10
8200.000977
 20
700.000061
 30
0.0
 11
8200.000977
 21
220.000015
 31
0.0
210
0.0
220
0.0
230
1.0
  0
LINE
  5
56
100
AcDbEntity
  8
0
 62
     7
100
AcDbLine
 10
500.000061
 20
5720.000488
 30
0.0
 11
8200.000977
 21
5720.000488
 31
0.0
210
0.0
220
0.0
230
1.0
  0
LINE
  5
57
100
AcDbEntity
  8
0
 62
     7
100
AcDbLine
 10
8200.000977
 20
220.000015
 30
0.0
 11
8200.000977
 21
5720.000488
 31
0.0
210
0.0
220
0.0
230
1.0
  0
LINE
  5
58
100
AcDbEntity
  8
0
 62
     7
100
AcDbLine
 10
8200.000977
 20
220.000015
 30
0.0
 11
500.000061
 21
220.000015
 31
0.0
210
0.0
220
0.0
230
1.0
  0
LINE
  5
59
100
AcDbEntity
  8
0
 62
     7
100
AcDbLine
 10
500.000061
 20
5720.000488
 30
0.0
 11
500.000061
 21
220.000015
 31
0.0
210
0.0
220
0.0
230
1.0
  0
LINE
  5
5A
100
AcDbEntity
  8
0
 62
     7
100
AcDbLine
 10
0.0
 20
2970.000244
 30
0.0
 11
500.000061
 21
2970.000244
 31
0.0
210
0.0
220
0.0
230
1.0
  0
LINE
  5
5B
100
AcDbEntity
  8
0
 62
     7
100
AcDbLine
 10
4360.000488
 20
220.000015
 30
0.0
 11
4360.000488
 21
0.0
 31
0.0
210
0.0
220
0.0
230
1.0
  0
LINE
  5
5C
100
AcDbEntity
  8
0
 62
     7
100
AcDbLine
 10
4360.000488
 20
5720.000488
 30
0.0
 11
4360.000488
 21
5940.000488
 31
0.0
210
0.0
220
0.0
230
1.0
  0
LINE
  5
5D
100
AcDbEntity
  8
0
 62
     7
100
AcDbLine
 10
8200.000977
 20
2970.000244
 30
0.0
 11
8400.000977
 21
2970.000244
 31
0.0
210
0.0
220
0.0
230
1.0
  0
POLYLINE
  5
5E
100
AcDbEntity
  8
0
 62
     7
100
AcDb2dPolyline
 66
     1
 10
0.0
 20
0.0
 30
0.0
 71
   417
  0
VERTEX
  5
5F
100
AcDbEntity
  8
0
100
AcDbVertex
100
AcDb2dVertex
 10
7399.505859
 20
462.071655
 30
0.0
  0
VERTEX
  5
60
100
AcDbEntity
  8
0
100
AcDbVertex
100
AcDb2dVertex
 10
7399.720703
 20
462.650452
 30
0.0
  0
VERTEX
  5
61
100
AcDbEntity
  8
0
100
AcDbVertex
100
AcDb2dVertex
 10
7399.936035
 20
463.228485
 30
0.0
  0
VERTEX
  5
62
100
AcDbEntity
  8
0
100
AcDbVertex
100
AcDb2dVertex
 10
7400.080078
 20
463.606995
 30
0.0
  0
VERTEX
  5
63
100
AcDbEntity
  8
0
100
AcDbVertex
100
AcDb2dVertex
 10
7400.226074
 20
463.984772
 30
0.0
  0
VERTEX
  5
64
100
AcDbEntity
  8
0
100
AcDbVertex
100
AcDb2dVertex
 10
7400.401855
 20
464.43222
 30
0.0
  0
VERTEX
  5
65
100
AcDbEntity
  8
0
100
AcDbVertex
100
AcDb2dVertex
 10
7400.580078
 20
464.878815
 30
0.0
  0
VERTEX
  5
66
100
AcDbEntity
  8
0
100
AcDbVertex
100
AcDb2dVertex
 10
7400.765625
 20
465.336029
 30
0.0
  0
VERTEX
  5
67
100
AcDbEntity
  8
0
100
AcDbVertex
100
AcDb2dVertex
 10
7400.953613
 20
465.791962
 30
0.0
  0
VERTEX
  5
68
100
AcDbEntity
  8
0
100
AcDbVertex
100
AcDb2dVertex
 10
7401.158691
 20
466.281219
 30
0.0
  0
VERTEX
  5
69
100
AcDbEntity
  8
0
100
AcDbVertex
100
AcDb2dVertex
 10
7401.366699
 20
466.769196
 30
0.0
  0
VERTEX
  5
6A
100
AcDbEntity
  8
0
100
AcDbVertex
100
AcDb2dVertex
 10
7401.523438
 20
467.130524
 30
0.0
  0
VERTEX
  5
6B
100
AcDbEntity
  8
0
100
AcDbVertex
100
AcDb2dVertex
 10
7401.682129
 20
467.490814
 30
0.0
  0
VERTEX
  5
6C
100
AcDbEntity
  8
0
100
AcDbVertex
100
AcDb2dVertex
 10
7401.941406
 20
468.071625
 30
0.0
  0
VERTEX
  5
6D
100
AcDbEntity
  8
0
100
AcDbVertex
100
AcDb2dVertex
 10
7402.206543
 20
468.650452
 30
0.0
  0
VERTEX
  5
6E
100
AcDbEntity
  8
0
100
AcDbVertex
100
AcDb2dVertex
 10
7402.458496
 20
469.190247
 30
0.0
  0
VERTEX
  5
6F
100
AcDbEntity
  8
0
100
AcDbVertex
100
AcDb2dVertex
 10
7402.715332
 20
469.728027
 30
0.0
  0
VERTEX
  5
70
100
AcDbEntity
  8
0
100
AcDbVertex
100
AcDb2dVertex
 10
7402.98877
 20
470.29068
 30
0.0
  0
VERTEX
  5
71
100
AcDbEntity
  8
0
100
AcDbVertex
100
AcDb2dVertex
 10
7403.268066
 20
470.851166
 30
0.0
  0
VERTEX
  5
72
100
AcDbEntity
  8
0
100
AcDbVertex
100
AcDb2dVertex
 10
7403.521973
 20
471.349426
 30
0.0
  0
VERTEX
  5
73
100
AcDbEntity
  8
0
100
AcDbVertex
100
AcDb2dVertex
 10
7403.778809
 20
471.845642
 30
0.0
  0
VERTEX
  5
74
100
AcDbEntity
  8
0
100
AcDbVertex
100
AcDb2dVertex
 10
7404.078613
 20
472.409607
 30
0.0
  0
VERTEX
  5
75
100
AcDbEntity
  8
0
100
AcDbVertex
100
AcDb2dVertex
 10
7404.382813
 20
472.970612
 30
0.0
  0
VERTEX
  5
76
100
AcDbEntity
  8
0
100
AcDbVertex
100
AcDb2dVertex
 10
7404.713867
 20
473.566101
 30
0.0
  0
VERTEX
  5
77
100
AcDbEntity
  8
0
100
AcDbVertex
100
AcDb2dVertex
 10
7405.05127
 20
474.158051
 30
0.0
  0
VERTEX
  5
78
100
AcDbEntity
  8
0
100
AcDbVertex
100
AcDb2dVertex
 10
7405.358398
 20
474.685608
 30
0.0
  0
VERTEX
  5
79
100
AcDbEntity
  8
0
100
AcDbVertex
100
AcDb2dVertex
 10
7405.671387
 20
475.209991
 30
0.0
  0
VERTEX
  5
7A
100
AcDbEntity
  8
0
100
AcDbVertex
100
AcDb2dVertex
 10
7405.932129
 20
475.636841
 30
0.0
  0
VERTEX
  5
7B
100
AcDbEntity
  8
0
100
AcDbVertex
100
AcDb2dVertex
 10
7406.196289
 20
476.061432
 30
0.0
  0
VERTEX
  5
7C
100
AcDbEntity
  8
0
100
AcDbVertex
100
AcDb2dVertex
 10
7406.271484
 20
476.180115
 30
0.0
  0
VERTEX
  5
7D
100
AcDbEntity
  8
0
100
AcDbVertex
100
AcDb2dVertex
 10
7406.34668
 20
476.298553
 30
0.0
  0
VERTEX
  5
7E
100
AcDbEntity
  8
0
100
AcDbVertex
100
AcDb2dVertex
 10
7406.719238
 20
476.879578
 30
0.0
  0
VERTEX
  5
7F
100
AcDbEntity
  8
0
100
AcDbVertex
100
AcDb2dVertex
 10
7407.099609
 20
477.456177
 30
0.0
  0
VERTEX
  5
80
100
AcDbEntity
  8
0
100
AcDbVertex
100
AcDb2dVertex
 10
7407.464844
 20
477.995789
 30
0.0
  0
VERTEX
  5
81
100
AcDbEntity
  8
0
100
AcDbVertex
100
AcDb2dVertex
 10
7407.836426
 20
478.530975
 30
0.0
  0
VERTEX
  5
82
100
AcDbEntity
  8
0
100
AcDbVertex
100
AcDb2dVertex
 10
7408.163574
 20
478.990204
 30
0.0
  0
VERTEX
  5
83
100
AcDbEntity
  8
0
100
AcDbVertex
100
AcDb2dVertex
 10
7408.495117
 20
479.445984
 30
0.0
  0
VERTEX
  5
84
100
AcDbEntity
  8
0
100
AcDbVertex
100
AcDb2dVertex
 10
7408.840332
 20
479.909241
 30
0.0
  0
VERTEX
  5
85
100
AcDbEntity
  8
0
100
AcDbVertex
100
AcDb2dVertex
 10
7409.190918
 20
480.368652
 30
0.0
  0
VERTEX
  5
86
100
AcDbEntity
  8
0
100
AcDbVertex
100
AcDb2dVertex
 10
7409.560059
 20
480.842194
 30
0.0
  0
VERTEX
  5
87
100
AcDbEntity
  8
0
100
AcDbVertex
100
AcDb2dVertex
 10
7409.936035
 20
481.311279
 30
0.0
  0
VERTEX
  5
88
100
AcDbEntity
  8
0
100
AcDbVertex
100
AcDb2dVertex
 10
7410.388672
 20
481.863159
 30
0.0
  0
VERTEX
  5
89
100
AcDbEntity
  8
0
100
AcDbVertex
100
AcDb2dVertex
 10
7410.851074
 20
482.408081
 30
0.0
  0
VERTEX
  5
8A
100
AcDbEntity
  8
0
100
AcDbVertex
100
AcDb2dVertex
 10
7411.222656
 20
482.835785
 30
0.0
  0
VERTEX
  5
8B
100
AcDbEntity
  8
0
100
AcDbVertex
100
AcDb2dVertex
 10
7411.599609
 20
483.258972
 30
0.0
  0
VERTEX
  5
8C
100
AcDbEntity
  8
0
100
AcDbVertex
100
AcDb2dVertex
 10
7412.012207
 20
483.710541
 30
0.0
  0
VERTEX
  5
8D
100
AcDbEntity
  8
0
100
AcDbVertex
100
AcDb2dVertex
 10
7412.431152
 20
484.156738
 30
0.0
  0
VERTEX
  5
8E
100
AcDbEntity
  8
0
100
AcDbVertex
100
AcDb2dVertex
 10
7412.835938
 20
484.577148
 30
0.0
  0
VERTEX
  5
8F
100
AcDbEntity
  8
0
100
AcDbVertex
100
AcDb2dVertex
 10
7413.246094
 20
484.992218
 30
0.0
  0
VERTEX
  5
90
100
AcDbEntity
  8
0
100
AcDbVertex
100
AcDb2dVertex
 10
7413.757813
 20
485.494659
 30
0.0
  0
VERTEX
  5
91
100
AcDbEntity
  8
0
100
AcDbVertex
100
AcDb2dVertex
 10
7414.277344
 20
485.989624
 30
0.0
  0
VERTEX
  5
92
100
AcDbEntity
  8
0
100
AcDbVertex
100
AcDb2dVertex
 10
7414.712402
 20
486.394287
 30
0.0
  0
VERTEX
  5
93
100
AcDbEntity
  8
0
100
AcDbVertex
100
AcDb2dVertex
 10
7415.155762
 20
486.790527
 30
0.0
  0
VERTEX
  5
94
100
AcDbEntity
  8
0
100
AcDbVertex
100
AcDb2dVertex
 10
7415.428711
 20
487.025269
 30
0.0
  0
VERTEX
  5
95
100
AcDbEntity
  8
0
100
AcDbVertex
100
AcDb2dVertex
 10
7415.701172
 20
487.259277
 30
0.0
  0
VERTEX
  5
96
100
AcDbEntity
  8
0
100
AcDbVertex
100
AcDb2dVertex
 10
7415.973633
 20
487.494751
 30
0.0
  0
VERTEX
  5
97
100
AcDbEntity
  8
0
100
AcDbVertex
100
AcDb2dVertex
 10
7416.248047
 20
487.727631
 30
0.0
  0
VERTEX
  5
98
100
AcDbEntity
  8
0
100
AcDbVertex
100
AcDb2dVertex
 10
7416.55957
 20
487.978516
 30
0.0
  0
VERTEX
  5
99
100
AcDbEntity
  8
0
100
AcDbVertex
100
AcDb2dVertex
 10
7416.87207
 20
488.226776
 30
0.0
  0
VERTEX
  5
9A
100
AcDbEntity
  8
0
100
AcDbVertex
100
AcDb2dVertex
 10
7417.183105
 20
488.477844
 30
0.0
  0
VERTEX
  5
9B
100
AcDbEntity
  8
0
100
AcDbVertex
100
AcDb2dVertex
 10
7417.496582
 20
488.725586
 30
0.0
  0
VERTEX
  5
9C
100
AcDbEntity
  8
0
100
AcDbVertex
100
AcDb2dVertex
 10
7417.775879
 20
488.935242
 30
0.0
  0
VERTEX
  5
9D
100
AcDbEntity
  8
0
100
AcDbVertex
100
AcDb2dVertex
 10
7418.057129
 20
489.1427
 30
0.0
  0
VERTEX
  5
9E
100
AcDbEntity
  8
0
100
AcDbVertex
100
AcDb2dVertex
 10
7418.336914
 20
489.351959
 30
0.0
  0
VERTEX
  5
9F
100
AcDbEntity
  8
0
100
AcDbVertex
100
AcDb2dVertex
 10
7418.618164
 20
489.559265
 30
0.0
  0
VERTEX
  5
A0
100
AcDbEntity
  8
0
100
AcDbVertex
100
AcDb2dVertex
 10
7418.881836
 20
489.744385
 30
0.0
  0
VERTEX
  5
A1
100
AcDbEntity
  8
0
100
AcDbVertex
100
AcDb2dVertex
 10
7419.146973
 20
489.92749
 30
0.0
  0
VERTEX
  5
A2
100
AcDbEntity
  8
0
100
AcDbVertex
100
AcDb2dVertex
 10
7419.410645
 20
490.112244
 30
0.0
  0
VERTEX
  5
A3
100
AcDbEntity
  8
0
100
AcDbVertex
100
AcDb2dVertex
 10
7419.675293
 20
490.295166
 30
0.0
  0
VERTEX
  5
A4
100
AcDbEntity
  8
0
100
AcDbVertex
100
AcDb2dVertex
 10
7419.963379
 20
490.48468
 30
0.0
  0
VERTEX
  5
A5
100
AcDbEntity
  8
0
100
AcDbVertex
100
AcDb2dVertex
 10
7420.253418
 20
490.671448
 30
0.0
  0
VERTEX
  5
A6
100
AcDbEntity
  8
0
100
AcDbVertex
100
AcDb2dVertex
 10
7420.541992
 20
490.85968
 30
0.0
  0
VERTEX
  5
A7
100
AcDbEntity
  8
0
100
AcDbVertex
100
AcDb2dVertex
 10
7420.830566
 20
491.04718
 30
0.0
  0
VERTEX
  5
A8
100
AcDbEntity
  8
0
100
AcDbVertex
100
AcDb2dVertex
 10
7421.264648
 20
491.317261
 30
0.0
  0
VERTEX
  5
A9
100
AcDbEntity
  8
0
100
AcDbVertex
100
AcDb2dVertex
 10
7421.703125
 20
491.58075
 30
0.0
  0
VERTEX
  5
AA
100
AcDbEntity
  8
0
100
AcDbVertex
100
AcDb2dVertex
 10
7422.245117
 20
491.899872
 30
0.0
  0
VERTEX
  5
AB
100
AcDbEntity
  8
0
100
AcDbVertex
100
AcDb2dVertex
 10
7422.791992
 20
492.208801
 30
0.0
  0
VERTEX
  5
AC
100
AcDbEntity
  8
0
100
AcDbVertex
100
AcDb2dVertex
 10
7423.183594
 20
492.418457
 30
0.0
  0
VERTEX
  5
AD
100
AcDbEntity
  8
0
100
AcDbVertex
100
AcDb2dVertex
 10
7423.575684
 20
492.626282
 30
0.0
  0
VERTEX
  5
AE
100
AcDbEntity
  8
0
100
AcDbVertex
100
AcDb2dVertex
 10
7423.966797
 20
492.836853
 30
0.0
  0
VERTEX
  5
AF
100
AcDbEntity
  8
0
100
AcDbVertex
100
AcDb2dVertex
 10
7424.359375
 20
493.04303
 30
0.0
  0
VERTEX
  5
B0
100
AcDbEntity
  8
0
100
AcDbVertex
100
AcDb2dVertex
 10
7424.620605
 20
493.172272
 30
0.0
  0
VERTEX
  5
B1
100
AcDbEntity
  8
0
100
AcDbVertex
100
AcDb2dVertex
 10
7424.882324
 20
493.299713
 30
0.0
  0
VERTEX
  5
B2
100
AcDbEntity
  8
0
100
AcDbVertex
100
AcDb2dVertex
 10
7425.143555
 20
493.42865
 30
0.0
  0
VERTEX
  5
B3
100
AcDbEntity
  8
0
100
AcDbVertex
100
AcDb2dVertex
 10
7425.405273
 20
493.555908
 30
0.0
  0
VERTEX
  5
B4
100
AcDbEntity
  8
0
100
AcDbVertex
100
AcDb2dVertex
 10
7425.783203
 20
493.729828
 30
0.0
  0
VERTEX
  5
B5
100
AcDbEntity
  8
0
100
AcDbVertex
100
AcDb2dVertex
 10
7426.163574
 20
493.899963
 30
0.0
  0
VERTEX
  5
B6
100
AcDbEntity
  8
0
100
AcDbVertex
100
AcDb2dVertex
 10
7426.541992
 20
494.072418
 30
0.0
  0
VERTEX
  5
B7
100
AcDbEntity
  8
0
100
AcDbVertex
100
AcDb2dVertex
 10
7426.921387
 20
494.243439
 30
0.0
  0
VERTEX
  5
B8
100
AcDbEntity
  8
0
100
AcDbVertex
100
AcDb2dVertex
 10
7427.455078
 20
494.472168
 30
0.0
  0
VERTEX
  5
B9
100
AcDbEntity
  8
0
100
AcDbVertex
100
AcDb2dVertex
 10
7427.992188
 20
494.691315
 30
0.0
  0
VERTEX
  5
BA
100
AcDbEntity
  8
0
100
AcDbVertex
100
AcDb2dVertex
 10
7428.501465
 20
494.893646
 30
0.0
  0
VERTEX
  5
BB
100
AcDbEntity
  8
0
100
AcDbVertex
100
AcDb2dVertex
 10
7429.013672
 20
495.090881
 30
0.0
  0
VERTEX
  5
BC
100
AcDbEntity
  8
0
100
AcDbVertex
100
AcDb2dVertex
 10
7429.594727
 20
495.307129
 30
0.0
  0
VERTEX
  5
BD
100
AcDbEntity
  8
0
100
AcDbVertex
100
AcDb2dVertex
 10
7430.178711
 20
495.516052
 30
0.0
  0
VERTEX
  5
BE
100
AcDbEntity
  8
0
100
AcDbVertex
100
AcDb2dVertex
 10
7430.824707
 20
495.737762
 30
0.0
  0
VERTEX
  5
BF
100
AcDbEntity
  8
0
100
AcDbVertex
100
AcDb2dVertex
 10
7431.473633
 20
495.951294
 30
0.0
  0
VERTEX
  5
C0
100
AcDbEntity
  8
0
100
AcDbVertex
100
AcDb2dVertex
 10
7432.144043
 20
496.162781
 30
0.0
  0
VERTEX
  5
C1
100
AcDbEntity
  8
0
100
AcDbVertex
100
AcDb2dVertex
 10
7432.817871
 20
496.365295
 30
0.0
  0
VERTEX
  5
C2
100
AcDbEntity
  8
0
100
AcDbVertex
100
AcDb2dVertex
 10
7433.451172
 20
496.547302
 30
0.0
  0
VERTEX
  5
C3
100
AcDbEntity
  8
0
100
AcDbVertex
100
AcDb2dVertex
 10
7434.085938
 20
496.721954
 30
0.0
  0
VERTEX
  5
C4
100
AcDbEntity
  8
0
100
AcDbVertex
100
AcDb2dVertex
 10
7434.707031
 20
496.885681
 30
0.0
  0
VERTEX
  5
C5
100
AcDbEntity
  8
0
100
AcDbVertex
100
AcDb2dVertex
 10
7435.32959
 20
497.042603
 30
0.0
  0
VERTEX
  5
C6
100
AcDbEntity
  8
0
100
AcDbVertex
100
AcDb2dVertex
 10
7436.056152
 20
497.216736
 30
0.0
  0
VERTEX
  5
C7
100
AcDbEntity
  8
0
100
AcDbVertex
100
AcDb2dVertex
 10
7436.784668
 20
497.381897
 30
0.0
  0
VERTEX
  5
C8
100
AcDbEntity
  8
0
100
AcDbVertex
100
AcDb2dVertex
 10
7437.440918
 20
497.523041
 30
0.0
  0
VERTEX
  5
C9
100
AcDbEntity
  8
0
100
AcDbVertex
100
AcDb2dVertex
 10
7438.098633
 20
497.657837
 30
0.0
  0
VERTEX
  5
CA
100
AcDbEntity
  8
0
100
AcDbVertex
100
AcDb2dVertex
 10
7438.870117
 20
497.807251
 30
0.0
  0
VERTEX
  5
CB
100
AcDbEntity
  8
0
100
AcDbVertex
100
AcDb2dVertex
 10
7439.643555
 20
497.948059
 30
0.0
  0
VERTEX
  5
CC
100
AcDbEntity
  8
0
100
AcDbVertex
100
AcDb2dVertex
 10
7440.202637
 20
498.043793
 30
0.0
  0
VERTEX
  5
CD
100
AcDbEntity
  8
0
100
AcDbVertex
100
AcDb2dVertex
 10
7440.762207
 20
498.135376
 30
0.0
  0
VERTEX
  5
CE
100
AcDbEntity
  8
0
100
AcDbVertex
100
AcDb2dVertex
 10
7441.571777
 20
498.260254
 30
0.0
  0
VERTEX
  5
CF
100
AcDbEntity
  8
0
100
AcDbVertex
100
AcDb2dVertex
 10
7442.382813
 20
498.376526
 30
0.0
  0
VERTEX
  5
D0
100
AcDbEntity
  8
0
100
AcDbVertex
100
AcDb2dVertex
 10
7443.169434
 20
498.48053
 30
0.0
  0
VERTEX
  5
D1
100
AcDbEntity
  8
0
100
AcDbVertex
100
AcDb2dVertex
 10
7443.957031
 20
498.577026
 30
0.0
  0
VERTEX
  5
D2
100
AcDbEntity
  8
0
100
AcDbVertex
100
AcDb2dVertex
 10
7444.737793
 20
498.665466
 30
0.0
  0
VERTEX
  5
D3
100
AcDbEntity
  8
0
100
AcDbVertex
100
AcDb2dVertex
 10
7445.519531
 20
498.746918
 30
0.0
  0
VERTEX
  5
D4
100
AcDbEntity
  8
0
100
AcDbVertex
100
AcDb2dVertex
 10
7446.394531
 20
498.829712
 30
0.0
  0
VERTEX
  5
D5
100
AcDbEntity
  8
0
100
AcDbVertex
100
AcDb2dVertex
 10
7447.270508
 20
498.90387
 30
0.0
  0
VERTEX
  5
D6
100
AcDbEntity
  8
0
100
AcDbVertex
100
AcDb2dVertex
 10
7448.130371
 20
498.968658
 30
0.0
  0
VERTEX
  5
D7
100
AcDbEntity
  8
0
100
AcDbVertex
100
AcDb2dVertex
 10
7448.991211
 20
499.026184
 30
0.0
  0
VERTEX
  5
D8
100
AcDbEntity
  8
0
100
AcDbVertex
100
AcDb2dVertex
 10
7449.770508
 20
499.072327
 30
0.0
  0
VERTEX
  5
D9
100
AcDbEntity
  8
0
100
AcDbVertex
100
AcDb2dVertex
 10
7450.55127
 20
499.11261
 30
0.0
  0
VERTEX
  5
DA
100
AcDbEntity
  8
0
100
AcDbVertex
100
AcDb2dVertex
 10
7451.333496
 20
499.147186
 30
0.0
  0
VERTEX
  5
DB
100
AcDbEntity
  8
0
100
AcDbVertex
100
AcDb2dVertex
 10
7452.116211
 20
499.176147
 30
0.0
  0
VERTEX
  5
DC
100
AcDbEntity
  8
0
100
AcDbVertex
100
AcDb2dVertex
 10
7452.702637
 20
499.194458
 30
0.0
  0
VERTEX
  5
DD
100
AcDbEntity
  8
0
100
AcDbVertex
100
AcDb2dVertex
 10
7453.288574
 20
499.210022
 30
0.0
  0
VERTEX
  5
DE
100
AcDbEntity
  8
0
100
AcDbVertex
100
AcDb2dVertex
 10
7453.904297
 20
499.223572
 30
0.0
  0
VERTEX
  5
DF
100
AcDbEntity
  8
0
100
AcDbVertex
100
AcDb2dVertex
 10
7454.520996
 20
499.234161
 30
0.0
  0
VERTEX
  5
E0
100
AcDbEntity
  8
0
100
AcDbVertex
100
AcDb2dVertex
 10
7455.476563
 20
499.244629
 30
0.0
  0
VERTEX
  5
E1
100
AcDbEntity
  8
0
100
AcDbVertex
100
AcDb2dVertex
 10
7456.432617
 20
499.247375
 30
0.0
  0
VERTEX
  5
E2
100
AcDbEntity
  8
0
100
AcDbVertex
100
AcDb2dVertex
 10
7456.908691
 20
499.245728
 30
0.0
  0
VERTEX
  5
E3
100
AcDbEntity
  8
0
100
AcDbVertex
100
AcDb2dVertex
 10
7457.384277
 20
499.241882
 30
0.0
  0
VERTEX
  5
E4
100
AcDbEntity
  8
0
100
AcDbVertex
100
AcDb2dVertex
 10
7457.891113
 20
499.234741
 30
0.0
  0
VERTEX
  5
E5
100
AcDbEntity
  8
0
100
AcDbVertex
100
AcDb2dVertex
 10
7458.397949
 20
499.22467
 30
0.0
  0
VERTEX
  5
E6
100
AcDbEntity
  8
0
100
AcDbVertex
100
AcDb2dVertex
 10
7458.795898
 20
499.2146
 30
0.0
  0
VERTEX
  5
E7
100
AcDbEntity
  8
0
100
AcDbVertex
100
AcDb2dVertex
 10
7459.193848
 20
499.202515
 30
0.0
  0
VERTEX
  5
E8
100
AcDbEntity
  8
0
100
AcDbVertex
100
AcDb2dVertex
 10
7459.512207
 20
499.191711
 30
0.0
  0
VERTEX
  5
E9
100
AcDbEntity
  8
0
100
AcDbVertex
100
AcDb2dVertex
 10
7459.831055
 20
499.179626
 30
0.0
  0
VERTEX
  5
EA
100
AcDbEntity
  8
0
100
AcDbVertex
100
AcDb2dVertex
 10
7460.166016
 20
499.165344
 30
0.0
  0
VERTEX
  5
EB
100
AcDbEntity
  8
0
100
AcDbVertex
100
AcDb2dVertex
 10
7460.502441
 20
499.149414
 30
0.0
  0
VERTEX
  5
EC
100
AcDbEntity
  8
0
100
AcDbVertex
100
AcDb2dVertex
 10
7460.793945
 20
499.134583
 30
0.0
  0
VERTEX
  5
ED
100
AcDbEntity
  8
0
100
AcDbVertex
100
AcDb2dVertex
 10
7461.085938
 20
499.119019
 30
0.0
  0
VERTEX
  5
EE
100
AcDbEntity
  8
0
100
AcDbVertex
100
AcDb2dVertex
 10
7461.380859
 20
499.102142
 30
0.0
  0
VERTEX
  5
EF
100
AcDbEntity
  8
0
100
AcDbVertex
100
AcDb2dVertex
 10
7461.675293
 20
499.084412
 30
0.0
  0
VERTEX
  5
F0
100
AcDbEntity
  8
0
100
AcDbVertex
100
AcDb2dVertex
 10
7462.217285
 20
499.048523
 30
0.0
  0
VERTEX
  5
F1
100
AcDbEntity
  8
0
100
AcDbVertex
100
AcDb2dVertex
 10
7462.759277
 20
499.008759
 30
0.0
  0
VERTEX
  5
F2
100
AcDbEntity
  8
0
100
AcDbVertex
100
AcDb2dVertex
 10
7463.319336
 20
498.963745
 30
0.0
  0
VERTEX
  5
F3
100
AcDbEntity
  8
0
100
AcDbVertex
100
AcDb2dVertex
 10
7463.878906
 20
498.914856
 30
0.0
  0
VERTEX
  5
F4
100
AcDbEntity
  8
0
100
AcDbVertex
100
AcDb2dVertex
 10
7464.485352
 20
498.857361
 30
0.0
  0
VERTEX
  5
F5
100
AcDbEntity
  8
0
100
AcDbVertex
100
AcDb2dVertex
 10
7465.091797
 20
498.795288
 30
0.0
  0
VERTEX
  5
F6
100
AcDbEntity
  8
0
100
AcDbVertex
100
AcDb2dVertex
 10
7465.685547
 20
498.729553
 30
0.0
  0
VERTEX
  5
F7
100
AcDbEntity
  8
0
100
AcDbVertex
100
AcDb2dVertex
 10
7466.279297
 20
498.659058
 30
0.0
  0
VERTEX
  5
F8
100
AcDbEntity
  8
0
100
AcDbVertex
100
AcDb2dVertex
 10
7466.89209
 20
498.58139
 30
0.0
  0
VERTEX
  5
F9
100
AcDbEntity
  8
0
100
AcDbVertex
100
AcDb2dVertex
 10
7467.505371
 20
498.49884
 30
0.0
  0
VERTEX
  5
FA
100
AcDbEntity
  8
0
100
AcDbVertex
100
AcDb2dVertex
 10
7467.970215
 20
498.432556
 30
0.0
  0
VERTEX
  5
FB
100
AcDbEntity
  8
0
100
AcDbVertex
100
AcDb2dVertex
 10
7468.434082
 20
498.363342
 30
0.0
  0
VERTEX
  5
FC
100
AcDbEntity
  8
0
100
AcDbVertex
100
AcDb2dVertex
 10
7468.95459
 20
498.28241
 30
0.0
  0
VERTEX
  5
FD
100
AcDbEntity
  8
0
100
AcDbVertex
100
AcDb2dVertex
 10
7469.474609
 20
498.197449
 30
0.0
  0
VERTEX
  5
FE
100
AcDbEntity
  8
0
100
AcDbVertex
100
AcDb2dVertex
 10
7469.967773
 20
498.11322
 30
0.0
  0
VERTEX
  5
FF
100
AcDbEntity
  8
0
100
AcDbVertex
100
AcDb2dVertex
 10
7470.458984
 20
498.02533
 30
0.0
  0
VERTEX
  5
100
100
AcDbEntity
  8
0
100
AcDbVertex
100
AcDb2dVertex
 10
7470.899902
 20
497.943848
 30
0.0
  0
VERTEX
  5
101
100
AcDbEntity
  8
0
100
AcDbVertex
100
AcDb2dVertex
 10
7471.339844
 20
497.859436
 30
0.0
  0
VERTEX
  5
102
100
AcDbEntity
  8
0
100
AcDbVertex
100
AcDb2dVertex
 10
7471.771973
 20
497.773743
 30
0.0
  0
VERTEX
  5
103
100
AcDbEntity
  8
0
100
AcDbVertex
100
AcDb2dVertex
 10
7472.20459
 20
497.685486
 30
0.0
  0
VERTEX
  5
104
100
AcDbEntity
  8
0
100
AcDbVertex
100
AcDb2dVertex
 10
7472.614258
 20
497.598877
 30
0.0
  0
VERTEX
  5
105
100
AcDbEntity
  8
0
100
AcDbVertex
100
AcDb2dVertex
 10
7473.022949
 20
497.509705
 30
0.0
  0
VERTEX
  5
106
100
AcDbEntity
  8
0
100
AcDbVertex
100
AcDb2dVertex
 10
7473.630371
 20
497.371979
 30
0.0
  0
VERTEX
  5
107
100
AcDbEntity
  8
0
100
AcDbVertex
100
AcDb2dVertex
 10
7474.236328
 20
497.228241
 30
0.0
  0
VERTEX
  5
108
100
AcDbEntity
  8
0
100
AcDbVertex
100
AcDb2dVertex
 10
7474.747559
 20
497.102814
 30
0.0
  0
VERTEX
  5
109
100
AcDbEntity
  8
0
100
AcDbVertex
100
AcDb2dVertex
 10
7475.256836
 20
496.973389
 30
0.0
  0
VERTEX
  5
10A
100
AcDbEntity
  8
0
100
AcDbVertex
100
AcDb2dVertex
 10
7475.701172
 20
496.856934
 30
0.0
  0
VERTEX
  5
10B
100
AcDbEntity
  8
0
100
AcDbVertex
100
AcDb2dVertex
 10
7476.144531
 20
496.737183
 30
0.0
  0
VERTEX
  5
10C
100
AcDbEntity
  8
0
100
AcDbVertex
100
AcDb2dVertex
 10
7476.584473
 20
496.614685
 30
0.0
  0
VERTEX
  5
10D
100
AcDbEntity
  8
0
100
AcDbVertex
100
AcDb2dVertex
 10
7477.023438
 20
496.488892
 30
0.0
  0
VERTEX
  5
10E
100
AcDbEntity
  8
0
100
AcDbVertex
100
AcDb2dVertex
 10
7477.465332
 20
496.35849
 30
0.0
  0
VERTEX
  5
10F
100
AcDbEntity
  8
0
100
AcDbVertex
100
AcDb2dVertex
 10
7477.906738
 20
496.224823
 30
0.0
  0
VERTEX
  5
110
100
AcDbEntity
  8
0
100
AcDbVertex
100
AcDb2dVertex
 10
7478.347168
 20
496.087708
 30
0.0
  0
VERTEX
  5
111
100
AcDbEntity
  8
0
100
AcDbVertex
100
AcDb2dVertex
 10
7478.788086
 20
495.947083
 30
0.0
  0
VERTEX
  5
112
100
AcDbEntity
  8
0
100
AcDbVertex
100
AcDb2dVertex
 10
7479.352051
 20
495.761047
 30
0.0
  0
VERTEX
  5
113
100
AcDbEntity
  8
0
100
AcDbVertex
100
AcDb2dVertex
 10
7479.913574
 20
495.56897
 30
0.0
  0
VERTEX
  5
114
100
AcDbEntity
  8
0
100
AcDbVertex
100
AcDb2dVertex
 10
7480.36084
 20
495.411652
 30
0.0
  0
VERTEX
  5
115
100
AcDbEntity
  8
0
100
AcDbVertex
100
AcDb2dVertex
 10
7480.806152
 20
495.250366
 30
0.0
  0
VERTEX
  5
116
100
AcDbEntity
  8
0
100
AcDbVertex
100
AcDb2dVertex
 10
7481.283691
 20
495.072571
 30
0.0
  0
VERTEX
  5
117
100
AcDbEntity
  8
0
100
AcDbVertex
100
AcDb2dVertex
 10
7481.758301
 20
494.890198
 30
0.0
  0
VERTEX
  5
118
100
AcDbEntity
  8
0
100
AcDbVertex
100
AcDb2dVertex
 10
7482.294434
 20
494.678711
 30
0.0
  0
VERTEX
  5
119
100
AcDbEntity
  8
0
100
AcDbVertex
100
AcDb2dVertex
 10
7482.827148
 20
494.461517
 30
0.0
  0
VERTEX
  5
11A
100
AcDbEntity
  8
0
100
AcDbVertex
100
AcDb2dVertex
 10
7483.392578
 20
494.22348
 30
0.0
  0
VERTEX
  5
11B
100
AcDbEntity
  8
0
100
AcDbVertex
100
AcDb2dVertex
 10
7483.954102
 20
493.978516
 30
0.0
  0
VERTEX
  5
11C
100
AcDbEntity
  8
0
100
AcDbVertex
100
AcDb2dVertex
 10
7484.497559
 20
493.733337
 30
0.0
  0
VERTEX
  5
11D
100
AcDbEntity
  8
0
100
AcDbVertex
100
AcDb2dVertex
 10
7485.038574
 20
493.481567
 30
0.0
  0
VERTEX
  5
11E
100
AcDbEntity
  8
0
100
AcDbVertex
100
AcDb2dVertex
 10
7485.591309
 20
493.215302
 30
0.0
  0
VERTEX
  5
11F
100
AcDbEntity
  8
0
100
AcDbVertex
100
AcDb2dVertex
 10
7486.140625
 20
492.941742
 30
0.0
  0
VERTEX
  5
120
100
AcDbEntity
  8
0
100
AcDbVertex
100
AcDb2dVertex
 10
7486.674316
 20
492.666382
 30
0.0
  0
VERTEX
  5
121
100
AcDbEntity
  8
0
100
AcDbVertex
100
AcDb2dVertex
 10
7487.20459
 20
492.384766
 30
0.0
  0
VERTEX
  5
122
100
AcDbEntity
  8
0
100
AcDbVertex
100
AcDb2dVertex
 10
7487.760742
 20
492.080627
 30
0.0
  0
VERTEX
  5
123
100
AcDbEntity
  8
0
100
AcDbVertex
100
AcDb2dVertex
 10
7488.310059
 20
491.765289
 30
0.0
  0
VERTEX
  5
124
100
AcDbEntity
  8
0
100
AcDbVertex
100
AcDb2dVertex
 10
7488.636719
 20
491.568848
 30
0.0
  0
VERTEX
  5
125
100
AcDbEntity
  8
0
100
AcDbVertex
100
AcDb2dVertex
 10
7488.961914
 20
491.370544
 30
0.0
  0
VERTEX
  5
126
100
AcDbEntity
  8
0
100
AcDbVertex
100
AcDb2dVertex
 10
7489.287598
 20
491.173157
 30
0.0
  0
VERTEX
  5
127
100
AcDbEntity
  8
0
100
AcDbVertex
100
AcDb2dVertex
 10
7489.612305
 20
490.973938
 30
0.0
  0
VERTEX
  5
128
100
AcDbEntity
  8
0
100
AcDbVertex
100
AcDb2dVertex
 10
7490.076172
 20
490.676575
 30
0.0
  0
VERTEX
  5
129
100
AcDbEntity
  8
0
100
AcDbVertex
100
AcDb2dVertex
 10
7490.53418
 20
490.369873
 30
0.0
  0
VERTEX
  5
12A
100
AcDbEntity
  8
0
100
AcDbVertex
100
AcDb2dVertex
 10
7491.070801
 20
489.998718
 30
0.0
  0
VERTEX
  5
12B
100
AcDbEntity
  8
0
100
AcDbVertex
100
AcDb2dVertex
 10
7491.601074
 20
489.618591
 30
0.0
  0
VERTEX
  5
12C
100
AcDbEntity
  8
0
100
AcDbVertex
100
AcDb2dVertex
 10
7492.147949
 20
489.209869
 30
0.0
  0
VERTEX
  5
12D
100
AcDbEntity
  8
0
100
AcDbVertex
100
AcDb2dVertex
 10
7492.685547
 20
488.789825
 30
0.0
  0
VERTEX
  5
12E
100
AcDbEntity
  8
0
100
AcDbVertex
100
AcDb2dVertex
 10
7493.141113
 20
488.419037
 30
0.0
  0
VERTEX
  5
12F
100
AcDbEntity
  8
0
100
AcDbVertex
100
AcDb2dVertex
 10
7493.589355
 20
488.03949
 30
0.0
  0
VERTEX
  5
130
100
AcDbEntity
  8
0
100
AcDbVertex
100
AcDb2dVertex
 10
7493.910156
 20
487.758423
 30
0.0
  0
VERTEX
  5
131
100
AcDbEntity
  8
0
100
AcDbVertex
100
AcDb2dVertex
 10
7494.226563
 20
487.472595
 30
0.0
  0
VERTEX
  5
132
100
AcDbEntity
  8
0
100
AcDbVertex
100
AcDb2dVertex
 10
7494.654785
 20
487.07251
 30
0.0
  0
VERTEX
  5
133
100
AcDbEntity
  8
0
100
AcDbVertex
100
AcDb2dVertex
 10
7495.07373
 20
486.663269
 30
0.0
  0
VERTEX
  5
134
100
AcDbEntity
  8
0
100
AcDbVertex
100
AcDb2dVertex
 10
7495.465332
 20
486.264801
 30
0.0
  0
VERTEX
  5
135
100
AcDbEntity
  8
0
100
AcDbVertex
100
AcDb2dVertex
 10
7495.847656
 20
485.857605
 30
0.0
  0
VERTEX
  5
136
100
AcDbEntity
  8
0
100
AcDbVertex
100
AcDb2dVertex
 10
7496.133301
 20
485.540466
 30
0.0
  0
VERTEX
  5
137
100
AcDbEntity
  8
0
100
AcDbVertex
100
AcDb2dVertex
 10
7496.415039
 20
485.219116
 30
0.0
  0
VERTEX
  5
138
100
AcDbEntity
  8
0
100
AcDbVertex
100
AcDb2dVertex
 10
7496.710938
 20
484.869385
 30
0.0
  0
VERTEX
  5
139
100
AcDbEntity
  8
0
100
AcDbVertex
100
AcDb2dVertex
 10
7496.99707
 20
484.51178
 30
0.0
  0
VERTEX
  5
13A
100
AcDbEntity
  8
0
100
AcDbVertex
100
AcDb2dVertex
 10
7497.168457
 20
484.284912
 30
0.0
  0
VERTEX
  5
13B
100
AcDbEntity
  8
0
100
AcDbVertex
100
AcDb2dVertex
 10
7497.338379
 20
484.056549
 30
0.0
  0
VERTEX
  5
13C
100
AcDbEntity
  8
0
100
AcDbVertex
100
AcDb2dVertex
 10
7497.507813
 20
483.828583
 30
0.0
  0
VERTEX
  5
13D
100
AcDbEntity
  8
0
100
AcDbVertex
100
AcDb2dVertex
 10
7497.67627
 20
483.599548
 30
0.0
  0
VERTEX
  5
13E
100
AcDbEntity
  8
0
100
AcDbVertex
100
AcDb2dVertex
 10
7497.94873
 20
483.206024
 30
0.0
  0
VERTEX
  5
13F
100
AcDbEntity
  8
0
100
AcDbVertex
100
AcDb2dVertex
 10
7498.207031
 20
482.804108
 30
0.0
  0
VERTEX
  5
140
100
AcDbEntity
  8
0
100
AcDbVertex
100
AcDb2dVertex
 10
7498.478516
 20
482.358093
 30
0.0
  0
VERTEX
  5
141
100
AcDbEntity
  8
0
100
AcDbVertex
100
AcDb2dVertex
 10
7498.740234
 20
481.90564
 30
0.0
  0
VERTEX
  5
142
100
AcDbEntity
  8
0
100
AcDbVertex
100
AcDb2dVertex
 10
7498.955566
 20
481.510468
 30
0.0
  0
VERTEX
  5
143
100
AcDbEntity
  8
0
100
AcDbVertex
100
AcDb2dVertex
 10
7499.157715
 20
481.108765
 30
0.0
  0
VERTEX
  5
144
100
AcDbEntity
  8
0
100
AcDbVertex
100
AcDb2dVertex
 10
7499.270508
 20
480.867615
 30
0.0
  0
VERTEX
  5
145
100
AcDbEntity
  8
0
100
AcDbVertex
100
AcDb2dVertex
 10
7499.380371
 20
480.625366
 30
0.0
  0
VERTEX
  5
146
100
AcDbEntity
  8
0
100
AcDbVertex
100
AcDb2dVertex
 10
7499.492188
 20
480.383514
 30
0.0
  0
VERTEX
  5
147
100
AcDbEntity
  8
0
100
AcDbVertex
100
AcDb2dVertex
 10
7499.601074
 20
480.140656
 30
0.0
  0
VERTEX
  5
148
100
AcDbEntity
  8
0
100
AcDbVertex
100
AcDb2dVertex
 10
7499.773438
 20
479.720276
 30
0.0
  0
VERTEX
  5
149
100
AcDbEntity
  8
0
100
AcDbVertex
100
AcDb2dVertex
 10
7499.932129
 20
479.294159
 30
0.0
  0
VERTEX
  5
14A
100
AcDbEntity
  8
0
100
AcDbVertex
100
AcDb2dVertex
 10
7500.084473
 20
478.857819
 30
0.0
  0
VERTEX
  5
14B
100
AcDbEntity
  8
0
100
AcDbVertex
100
AcDb2dVertex
 10
7500.225098
 20
478.417816
 30
0.0
  0
VERTEX
  5
14C
100
AcDbEntity
  8
0
100
AcDbVertex
100
AcDb2dVertex
 10
7500.330078
 20
478.057678
 30
0.0
  0
VERTEX
  5
14D
100
AcDbEntity
  8
0
100
AcDbVertex
100
AcDb2dVertex
 10
7500.427734
 20
477.694946
 30
0.0
  0
VERTEX
  5
14E
100
AcDbEntity
  8
0
100
AcDbVertex
100
AcDb2dVertex
 10
7500.541992
 20
477.221954
 30
0.0
  0
VERTEX
  5
14F
100
AcDbEntity
  8
0
100
AcDbVertex
100
AcDb2dVertex
 10
7500.643555
 20
476.746063
 30
0.0
  0
VERTEX
  5
150
100
AcDbEntity
  8
0
100
AcDbVertex
100
AcDb2dVertex
 10
7500.714355
 20
476.369965
 30
0.0
  0
VERTEX
  5
151
100
AcDbEntity
  8
0
100
AcDbVertex
100
AcDb2dVertex
 10
7500.776367
 20
475.992218
 30
0.0
  0
VERTEX
  5
152
100
AcDbEntity
  8
0
100
AcDbVertex
100
AcDb2dVertex
 10
7500.840332
 20
475.533752
 30
0.0
  0
VERTEX
  5
153
100
AcDbEntity
  8
0
100
AcDbVertex
100
AcDb2dVertex
 10
7500.893066
 20
475.073792
 30
0.0
  0
VERTEX
  5
154
100
AcDbEntity
  8
0
100
AcDbVertex
100
AcDb2dVertex
 10
7500.924316
 20
474.721313
 30
0.0
  0
VERTEX
  5
155
100
AcDbEntity
  8
0
100
AcDbVertex
100
AcDb2dVertex
 10
7500.949219
 20
474.368256
 30
0.0
  0
VERTEX
  5
156
100
AcDbEntity
  8
0
100
AcDbVertex
100
AcDb2dVertex
 10
7500.964844
 20
474.048004
 30
0.0
  0
VERTEX
  5
157
100
AcDbEntity
  8
0
100
AcDbVertex
100
AcDb2dVertex
 10
7500.975586
 20
473.72757
 30
0.0
  0
VERTEX
  5
158
100
AcDbEntity
  8
0
100
AcDbVertex
100
AcDb2dVertex
 10
7500.979492
 20
473.304993
 30
0.0
  0
VERTEX
  5
159
100
AcDbEntity
  8
0
100
AcDbVertex
100
AcDb2dVertex
 10
7500.974609
 20
472.882355
 30
0.0
  0
VERTEX
  5
15A
100
AcDbEntity
  8
0
100
AcDbVertex
100
AcDb2dVertex
 10
7500.959473
 20
472.456146
 30
0.0
  0
VERTEX
  5
15B
100
AcDbEntity
  8
0
100
AcDbVertex
100
AcDb2dVertex
 10
7500.93457
 20
472.030182
 30
0.0
  0
VERTEX
  5
15C
100
AcDbEntity
  8
0
100
AcDbVertex
100
AcDb2dVertex
 10
7500.913574
 20
471.768188
 30
0.0
  0
VERTEX
  5
15D
100
AcDbEntity
  8
0
100
AcDbVertex
100
AcDb2dVertex
 10
7500.890137
 20
471.506317
 30
0.0
  0
VERTEX
  5
15E
100
AcDbEntity
  8
0
100
AcDbVertex
100
AcDb2dVertex
 10
7500.852539
 20
471.16391
 30
0.0
  0
VERTEX
  5
15F
100
AcDbEntity
  8
0
100
AcDbVertex
100
AcDb2dVertex
 10
7500.80957
 20
470.822266
 30
0.0
  0
VERTEX
  5
160
100
AcDbEntity
  8
0
100
AcDbVertex
100
AcDb2dVertex
 10
7500.750977
 20
470.421997
 30
0.0
  0
VERTEX
  5
161
100
AcDbEntity
  8
0
100
AcDbVertex
100
AcDb2dVertex
 10
7500.683105
 20
470.023193
 30
0.0
  0
VERTEX
  5
162
100
AcDbEntity
  8
0
100
AcDbVertex
100
AcDb2dVertex
 10
7500.60498
 20
469.613953
 30
0.0
  0
VERTEX
  5
163
100
AcDbEntity
  8
0
100
AcDbVertex
100
AcDb2dVertex
 10
7500.518066
 20
469.206512
 30
0.0
  0
VERTEX
  5
164
100
AcDbEntity
  8
0
100
AcDbVertex
100
AcDb2dVertex
 10
7500.437012
 20
468.855316
 30
0.0
  0
VERTEX
  5
165
100
AcDbEntity
  8
0
100
AcDbVertex
100
AcDb2dVertex
 10
7500.349121
 20
468.505798
 30
0.0
  0
VERTEX
  5
166
100
AcDbEntity
  8
0
100
AcDbVertex
100
AcDb2dVertex
 10
7500.222168
 20
468.04071
 30
0.0
  0
VERTEX
  5
167
100
AcDbEntity
  8
0
100
AcDbVertex
100
AcDb2dVertex
 10
7500.083496
 20
467.578888
 30
0.0
  0
VERTEX
  5
168
100
AcDbEntity
  8
0
100
AcDbVertex
100
AcDb2dVertex
 10
7499.970703
 20
467.228821
 30
0.0
  0
VERTEX
  5
169
100
AcDbEntity
  8
0
100
AcDbVertex
100
AcDb2dVertex
 10
7499.852539
 20
466.880737
 30
0.0
  0
VERTEX
  5
16A
100
AcDbEntity
  8
0
100
AcDbVertex
100
AcDb2dVertex
 10
7499.719727
 20
466.511963
 30
0.0
  0
VERTEX
  5
16B
100
AcDbEntity
  8
0
100
AcDbVertex
100
AcDb2dVertex
 10
7499.580566
 20
466.145569
 30
0.0
  0
VERTEX
  5
16C
100
AcDbEntity
  8
0
100
AcDbVertex
100
AcDb2dVertex
 10
7499.431641
 20
465.774384
 30
0.0
  0
VERTEX
  5
16D
100
AcDbEntity
  8
0
100
AcDbVertex
100
AcDb2dVertex
 10
7499.276367
 20
465.405975
 30
0.0
  0
VERTEX
  5
16E
100
AcDbEntity
  8
0
100
AcDbVertex
100
AcDb2dVertex
 10
7499.115234
 20
465.041595
 30
0.0
  0
VERTEX
  5
16F
100
AcDbEntity
  8
0
100
AcDbVertex
100
AcDb2dVertex
 10
7498.947266
 20
464.680176
 30
0.0
  0
VERTEX
  5
170
100
AcDbEntity
  8
0
100
AcDbVertex
100
AcDb2dVertex
 10
7498.806152
 20
464.387543
 30
0.0
  0
VERTEX
  5
171
100
AcDbEntity
  8
0
100
AcDbVertex
100
AcDb2dVertex
 10
7498.660156
 20
464.096954
 30
0.0
  0
VERTEX
  5
172
100
AcDbEntity
  8
0
100
AcDbVertex
100
AcDb2dVertex
 10
7498.434082
 20
463.663757
 30
0.0
  0
VERTEX
  5
173
100
AcDbEntity
  8
0
100
AcDbVertex
100
AcDb2dVertex
 10
7498.19873
 20
463.23526
 30
0.0
  0
VERTEX
  5
174
100
AcDbEntity
  8
0
100
AcDbVertex
100
AcDb2dVertex
 10
7497.961914
 20
462.821289
 30
0.0
  0
VERTEX
  5
175
100
AcDbEntity
  8
0
100
AcDbVertex
100
AcDb2dVertex
 10
7497.716797
 20
462.412048
 30
0.0
  0
VERTEX
  5
176
100
AcDbEntity
  8
0
100
AcDbVertex
100
AcDb2dVertex
 10
7497.538086
 20
462.123657
 30
0.0
  0
VERTEX
  5
177
100
AcDbEntity
  8
0
100
AcDbVertex
100
AcDb2dVertex
 10
7497.35498
 20
461.837646
 30
0.0
  0
VERTEX
  5
178
100
AcDbEntity
  8
0
100
AcDbVertex
100
AcDb2dVertex
 10
7497.077637
 20
461.418488
 30
0.0
  0
VERTEX
  5
179
100
AcDbEntity
  8
0
100
AcDbVertex
100
AcDb2dVertex
 10
7496.791992
 20
461.004883
 30
0.0
  0
VERTEX
  5
17A
100
AcDbEntity
  8
0
100
AcDbVertex
100
AcDb2dVertex
 10
7496.598145
 20
460.732758
 30
0.0
  0
VERTEX
  5
17B
100
AcDbEntity
  8
0
100
AcDbVertex
100
AcDb2dVertex
 10
7496.400879
 20
460.462891
 30
0.0
  0
VERTEX
  5
17C
100
AcDbEntity
  8
0
100
AcDbVertex
100
AcDb2dVertex
 10
7496.154297
 20
460.135681
 30
0.0
  0
VERTEX
  5
17D
100
AcDbEntity
  8
0
100
AcDbVertex
100
AcDb2dVertex
 10
7495.903809
 20
459.812103
 30
0.0
  0
VERTEX
  5
17E
100
AcDbEntity
  8
0
100
AcDbVertex
100
AcDb2dVertex
 10
7495.637207
 20
459.47995
 30
0.0
  0
VERTEX
  5
17F
100
AcDbEntity
  8
0
100
AcDbVertex
100
AcDb2dVertex
 10
7495.366211
 20
459.152039
 30
0.0
  0
VERTEX
  5
180
100
AcDbEntity
  8
0
100
AcDbVertex
100
AcDb2dVertex
 10
7495.161133
 20
458.909027
 30
0.0
  0
VERTEX
  5
181
100
AcDbEntity
  8
0
100
AcDbVertex
100
AcDb2dVertex
 10
7494.952637
 20
458.668243
 30
0.0
  0
VERTEX
  5
182
100
AcDbEntity
  8
0
100
AcDbVertex
100
AcDb2dVertex
 10
7494.526855
 20
458.192535
 30
0.0
  0
VERTEX
  5
183
100
AcDbEntity
  8
0
100
AcDbVertex
100
AcDb2dVertex
 10
7494.092285
 20
457.725616
 30
0.0
  0
VERTEX
  5
184
100
AcDbEntity
  8
0
100
AcDbVertex
100
AcDb2dVertex
 10
7493.818848
 20
457.442017
 30
0.0
  0
VERTEX
  5
185
100
AcDbEntity
  8
0
100
AcDbVertex
100
AcDb2dVertex
 10
7493.542969
 20
457.161499
 30
0.0
  0
VERTEX
  5
186
100
AcDbEntity
  8
0
100
AcDbVertex
100
AcDb2dVertex
 10
7493.274414
 20
456.894348
 30
0.0
  0
VERTEX
  5
187
100
AcDbEntity
  8
0
100
AcDbVertex
100
AcDb2dVertex
 10
7493.00293
 20
456.630676
 30
0.0
  0
VERTEX
  5
188
100
AcDbEntity
  8
0
100
AcDbVertex
100
AcDb2dVertex
 10
7492.797363
 20
456.435486
 30
0.0
  0
VERTEX
  5
189
100
AcDbEntity
  8
0
100
AcDbVertex
100
AcDb2dVertex
 10
7492.589844
 20
456.242096
 30
0.0
  0
VERTEX
  5
18A
100
AcDbEntity
  8
0
100
AcDbVertex
100
AcDb2dVertex
 10
7492.365234
 20
456.035187
 30
0.0
  0
VERTEX
  5
18B
100
AcDbEntity
  8
0
100
AcDbVertex
100
AcDb2dVertex
 10
7492.138184
 20
455.830322
 30
0.0
  0
VERTEX
  5
18C
100
AcDbEntity
  8
0
100
AcDbVertex
100
AcDb2dVertex
 10
7491.850098
 20
455.575043
 30
0.0
  0
VERTEX
  5
18D
100
AcDbEntity
  8
0
100
AcDbVertex
100
AcDb2dVertex
 10
7491.558105
 20
455.32312
 30
0.0
  0
VERTEX
  5
18E
100
AcDbEntity
  8
0
100
AcDbVertex
100
AcDb2dVertex
 10
7491.273438
 20
455.081604
 30
0.0
  0
VERTEX
  5
18F
100
AcDbEntity
  8
0
100
AcDbVertex
100
AcDb2dVertex
 10
7490.98584
 20
454.843384
 30
0.0
  0
VERTEX
  5
190
100
AcDbEntity
  8
0
100
AcDbVertex
100
AcDb2dVertex
 10
7490.72168
 20
454.629852
 30
0.0
  0
VERTEX
  5
191
100
AcDbEntity
  8
0
100
AcDbVertex
100
AcDb2dVertex
 10
7490.45459
 20
454.418915
 30
0.0
  0
VERTEX
  5
192
100
AcDbEntity
  8
0
100
AcDbVertex
100
AcDb2dVertex
 10
7490.160645
 20
454.190033
 30
0.0
  0
VERTEX
  5
193
100
AcDbEntity
  8
0
100
AcDbVertex
100
AcDb2dVertex
 10
7489.86377
 20
453.964264
 30
0.0
  0
VERTEX
  5
194
100
AcDbEntity
  8
0
100
AcDbVertex
100
AcDb2dVertex
 10
7489.572266
 20
453.747681
 30
0.0
  0
VERTEX
  5
195
100
AcDbEntity
  8
0
100
AcDbVertex
100
AcDb2dVertex
 10
7489.278809
 20
453.534363
 30
0.0
  0
VERTEX
  5
196
100
AcDbEntity
  8
0
100
AcDbVertex
100
AcDb2dVertex
 10
7488.869629
 20
453.243958
 30
0.0
  0
VERTEX
  5
197
100
AcDbEntity
  8
0
100
AcDbVertex
100
AcDb2dVertex
 10
7488.456055
 20
452.959595
 30
0.0
  0
VERTEX
  5
198
100
AcDbEntity
  8
0
100
AcDbVertex
100
AcDb2dVertex
 10
7487.912109
 20
452.599213
 30
0.0
  0
VERTEX
  5
199
100
AcDbEntity
  8
0
100
AcDbVertex
100
AcDb2dVertex
 10
7487.361328
 20
452.248962
 30
0.0
  0
VERTEX
  5
19A
100
AcDbEntity
  8
0
100
AcDbVertex
100
AcDb2dVertex
 10
7486.899902
 20
451.964966
 30
0.0
  0
VERTEX
  5
19B
100
AcDbEntity
  8
0
100
AcDbVertex
100
AcDb2dVertex
 10
7486.43457
 20
451.687744
 30
0.0
  0
VERTEX
  5
19C
100
AcDbEntity
  8
0
100
AcDbVertex
100
AcDb2dVertex
 10
7485.898926
 20
451.381958
 30
0.0
  0
VERTEX
  5
19D
100
AcDbEntity
  8
0
100
AcDbVertex
100
AcDb2dVertex
 10
7485.358887
 20
451.08493
 30
0.0
  0
VERTEX
  5
19E
100
AcDbEntity
  8
0
100
AcDbVertex
100
AcDb2dVertex
 10
7484.885254
 20
450.833008
 30
0.0
  0
VERTEX
  5
19F
100
AcDbEntity
  8
0
100
AcDbVertex
100
AcDb2dVertex
 10
7484.408691
 20
450.587433
 30
0.0
  0
VERTEX
  5
1A0
100
AcDbEntity
  8
0
100
AcDbVertex
100
AcDb2dVertex
 10
7483.884766
 20
450.328369
 30
0.0
  0
VERTEX
  5
1A1
100
AcDbEntity
  8
0
100
AcDbVertex
100
AcDb2dVertex
 10
7483.358398
 20
450.077332
 30
0.0
  0
VERTEX
  5
1A2
100
AcDbEntity
  8
0
100
AcDbVertex
100
AcDb2dVertex
 10
7482.902832
 20
449.867828
 30
0.0
  0
VERTEX
  5
1A3
100
AcDbEntity
  8
0
100
AcDbVertex
100
AcDb2dVertex
 10
7482.445801
 20
449.664032
 30
0.0
  0
VERTEX
  5
1A4
100
AcDbEntity
  8
0
100
AcDbVertex
100
AcDb2dVertex
 10
7481.926758
 20
449.440857
 30
0.0
  0
VERTEX
  5
1A5
100
AcDbEntity
  8
0
100
AcDbVertex
100
AcDb2dVertex
 10
7481.405273
 20
449.224396
 30
0.0
  0
VERTEX
  5
1A6
100
AcDbEntity
  8
0
100
AcDbVertex
100
AcDb2dVertex
 10
7480.954102
 20
449.043304
 30
0.0
  0
VERTEX
  5
1A7
100
AcDbEntity
  8
0
100
AcDbVertex
100
AcDb2dVertex
 10
7480.500488
 20
448.867737
 30
0.0
  0
VERTEX
  5
1A8
100
AcDbEntity
  8
0
100
AcDbVertex
100
AcDb2dVertex
 10
7479.973633
 20
448.672363
 30
0.0
  0
VERTEX
  5
1A9
100
AcDbEntity
  8
0
100
AcDbVertex
100
AcDb2dVertex
 10
7479.444824
 20
448.483551
 30
0.0
  0
VERTEX
  5
1AA
100
AcDbEntity
  8
0
100
AcDbVertex
100
AcDb2dVertex
 10
7478.830566
 20
448.272797
 30
0.0
  0
VERTEX
  5
1AB
100
AcDbEntity
  8
0
100
AcDbVertex
100
AcDb2dVertex
 10
7478.214355
 20
448.070313
 30
0.0
  0
VERTEX
  5
1AC
100
AcDbEntity
  8
0
100
AcDbVertex
100
AcDb2dVertex
 10
7477.749512
 20
447.924194
 30
0.0
  0
VERTEX
  5
1AD
100
AcDbEntity
  8
0
100
AcDbVertex
100
AcDb2dVertex
 10
7477.282715
 20
447.782623
 30
0.0
  0
VERTEX
  5
1AE
100
AcDbEntity
  8
0
100
AcDbVertex
100
AcDb2dVertex
 10
7476.750488
 20
447.626801
 30
0.0
  0
VERTEX
  5
1AF
100
AcDbEntity
  8
0
100
AcDbVertex
100
AcDb2dVertex
 10
7476.216309
 20
447.477203
 30
0.0
  0
VERTEX
  5
1B0
100
AcDbEntity
  8
0
100
AcDbVertex
100
AcDb2dVertex
 10
7475.654785
 20
447.327667
 30
0.0
  0
VERTEX
  5
1B1
100
AcDbEntity
  8
0
100
AcDbVertex
100
AcDb2dVertex
 10
7475.091797
 20
447.184082
 30
0.0
  0
VERTEX
  5
1B2
100
AcDbEntity
  8
0
100
AcDbVertex
100
AcDb2dVertex
 10
7474.621094
 20
447.068512
 30
0.0
  0
VERTEX
  5
1B3
100
AcDbEntity
  8
0
100
AcDbVertex
100
AcDb2dVertex
 10
7474.149902
 20
446.957397
 30
0.0
  0
VERTEX
  5
1B4
100
AcDbEntity
  8
0
100
AcDbVertex
100
AcDb2dVertex
 10
7473.626953
 20
446.839844
 30
0.0
  0
VERTEX
  5
1B5
100
AcDbEntity
  8
0
100
AcDbVertex
100
AcDb2dVertex
 10
7473.101074
 20
446.727936
 30
0.0
  0
VERTEX
  5
1B6
100
AcDbEntity
  8
0
100
AcDbVertex
100
AcDb2dVertex
 10
7472.619141
 20
446.629272
 30
0.0
  0
VERTEX
  5
1B7
100
AcDbEntity
  8
0
100
AcDbVertex
100
AcDb2dVertex
 10
7472.135254
 20
446.534393
 30
0.0
  0
VERTEX
  5
1B8
100
AcDbEntity
  8
0
100
AcDbVertex
100
AcDb2dVertex
 10
7471.755371
 20
446.462646
 30
0.0
  0
VERTEX
  5
1B9
100
AcDbEntity
  8
0
100
AcDbVertex
100
AcDb2dVertex
 10
7471.375
 20
446.393433
 30
0.0
  0
VERTEX
  5
1BA
100
AcDbEntity
  8
0
100
AcDbVertex
100
AcDb2dVertex
 10
7470.875977
 20
446.306244
 30
0.0
  0
VERTEX
  5
1BB
100
AcDbEntity
  8
0
100
AcDbVertex
100
AcDb2dVertex
 10
7470.375977
 20
446.22348
 30
0.0
  0
VERTEX
  5
1BC
100
AcDbEntity
  8
0
100
AcDbVertex
100
AcDb2dVertex
 10
7469.78418
 20
446.131409
 30
0.0
  0
VERTEX
  5
1BD
100
AcDbEntity
  8
0
100
AcDbVertex
100
AcDb2dVertex
 10
7469.190918
 20
446.044952
 30
0.0
  0
VERTEX
  5
1BE
100
AcDbEntity
  8
0
100
AcDbVertex
100
AcDb2dVertex
 10
7468.631836
 20
445.968048
 30
0.0
  0
VERTEX
  5
1BF
100
AcDbEntity
  8
0
100
AcDbVertex
100
AcDb2dVertex
 10
7468.072754
 20
445.895721
 30
0.0
  0
VERTEX
  5
1C0
100
AcDbEntity
  8
0
100
AcDbVertex
100
AcDb2dVertex
 10
7467.525879
 20
445.829803
 30
0.0
  0
VERTEX
  5
1C1
100
AcDbEntity
  8
0
100
AcDbVertex
100
AcDb2dVertex
 10
7466.979004
 20
445.768677
 30
0.0
  0
VERTEX
  5
1C2
100
AcDbEntity
  8
0
100
AcDbVertex
100
AcDb2dVertex
 10
7466.383789
 20
445.706757
 30
0.0
  0
VERTEX
  5
1C3
100
AcDbEntity
  8
0
100
AcDbVertex
100
AcDb2dVertex
 10
7465.787598
 20
445.649658
 30
0.0
  0
VERTEX
  5
1C4
100
AcDbEntity
  8
0
100
AcDbVertex
100
AcDb2dVertex
 10
7465.22998
 20
445.600555
 30
0.0
  0
VERTEX
  5
1C5
100
AcDbEntity
  8
0
100
AcDbVertex
100
AcDb2dVertex
 10
7464.672852
 20
445.555695
 30
0.0
  0
VERTEX
  5
1C6
100
AcDbEntity
  8
0
100
AcDbVertex
100
AcDb2dVertex
 10
7464.020996
 20
445.50882
 30
0.0
  0
VERTEX
  5
1C7
100
AcDbEntity
  8
0
100
AcDbVertex
100
AcDb2dVertex
 10
7463.368652
 20
445.467255
 30
0.0
  0
VERTEX
  5
1C8
100
AcDbEntity
  8
0
100
AcDbVertex
100
AcDb2dVertex
 10
7462.899414
 20
445.440369
 30
0.0
  0
VERTEX
  5
1C9
100
AcDbEntity
  8
0
100
AcDbVertex
100
AcDb2dVertex
 10
7462.429688
 20
445.416199
 30
0.0
  0
VERTEX
  5
1CA
100
AcDbEntity
  8
0
100
AcDbVertex
100
AcDb2dVertex
 10
7461.857422
 20
445.390717
 30
0.0
  0
VERTEX
  5
1CB
100
AcDbEntity
  8
0
100
AcDbVertex
100
AcDb2dVertex
 10
7461.284668
 20
445.369141
 30
0.0
  0
VERTEX
  5
1CC
100
AcDbEntity
  8
0
100
AcDbVertex
100
AcDb2dVertex
 10
7460.786133
 20
445.353027
 30
0.0
  0
VERTEX
  5
1CD
100
AcDbEntity
  8
0
100
AcDbVertex
100
AcDb2dVertex
 10
7460.286133
 20
445.339996
 30
0.0
  0
VERTEX
  5
1CE
100
AcDbEntity
  8
0
100
AcDbVertex
100
AcDb2dVertex
 10
7459.879395
 20
445.332336
 30
0.0
  0
VERTEX
  5
1CF
100
AcDbEntity
  8
0
100
AcDbVertex
100
AcDb2dVertex
 10
7459.47168
 20
445.326263
 30
0.0
  0
VERTEX
  5
1D0
100
AcDbEntity
  8
0
100
AcDbVertex
100
AcDb2dVertex
 10
7459.07666
 20
445.32135
 30
0.0
  0
VERTEX
  5
1D1
100
AcDbEntity
  8
0
100
AcDbVertex
100
AcDb2dVertex
 10
7458.681152
 20
445.317841
 30
0.0
  0
VERTEX
  5
1D2
100
AcDbEntity
  8
0
100
AcDbVertex
100
AcDb2dVertex
 10
7458.096191
 20
445.316559
 30
0.0
  0
VERTEX
  5
1D3
100
AcDbEntity
  8
0
100
AcDbVertex
100
AcDb2dVertex
 10
7457.51123
 20
445.319336
 30
0.0
  0
VERTEX
  5
1D4
100
AcDbEntity
  8
0
100
AcDbVertex
100
AcDb2dVertex
 10
7456.970215
 20
445.324829
 30
0.0
  0
VERTEX
  5
1D5
100
AcDbEntity
  8
0
100
AcDbVertex
100
AcDb2dVertex
 10
7456.430176
 20
445.333252
 30
0.0
  0
VERTEX
  5
1D6
100
AcDbEntity
  8
0
100
AcDbVertex
100
AcDb2dVertex
 10
7455.915527
 20
445.343475
 30
0.0
  0
VERTEX
  5
1D7
100
AcDbEntity
  8
0
100
AcDbVertex
100
AcDb2dVertex
 10
7455.401855
 20
445.356689
 30
0.0
  0
VERTEX
  5
1D8
100
AcDbEntity
  8
0
100
AcDbVertex
100
AcDb2dVertex
 10
7454.862793
 20
445.373352
 30
0.0
  0
VERTEX
  5
1D9
100
AcDbEntity
  8
0
100
AcDbVertex
100
AcDb2dVertex
 10
7454.325195
 20
445.392578
 30
0.0
  0
VERTEX
  5
1DA
100
AcDbEntity
  8
0
100
AcDbVertex
100
AcDb2dVertex
 10
7453.764648
 20
445.415131
 30
0.0
  0
VERTEX
  5
1DB
100
AcDbEntity
  8
0
100
AcDbVertex
100
AcDb2dVertex
 10
7453.20459
 20
445.440918
 30
0.0
  0
VERTEX
  5
1DC
100
AcDbEntity
  8
0
100
AcDbVertex
100
AcDb2dVertex
 10
7452.753418
 20
445.464172
 30
0.0
  0
VERTEX
  5
1DD
100
AcDbEntity
  8
0
100
AcDbVertex
100
AcDb2dVertex
 10
7452.302734
 20
445.489227
 30
0.0
  0
VERTEX
  5
1DE
100
AcDbEntity
  8
0
100
AcDbVertex
100
AcDb2dVertex
 10
7451.706055
 20
445.523865
 30
0.0
  0
VERTEX
  5
1DF
100
AcDbEntity
  8
0
100
AcDbVertex
100
AcDb2dVertex
 10
7451.108887
 20
445.561188
 30
0.0
  0
VERTEX
  5
1E0
100
AcDbEntity
  8
0
100
AcDbVertex
100
AcDb2dVertex
 10
7450.571777
 20
445.598389
 30
0.0
  0
VERTEX
  5
1E1
100
AcDbEntity
  8
0
100
AcDbVertex
100
AcDb2dVertex
 10
7450.034668
 20
445.638458
 30
0.0
  0
VERTEX
  5
1E2
100
AcDbEntity
  8
0
100
AcDbVertex
100
AcDb2dVertex
 10
7449.460938
 20
445.683716
 30
0.0
  0
VERTEX
  5
1E3
100
AcDbEntity
  8
0
100
AcDbVertex
100
AcDb2dVertex
 10
7448.887207
 20
445.73114
 30
0.0
  0
VERTEX
  5
1E4
100
AcDbEntity
  8
0
100
AcDbVertex
100
AcDb2dVertex
 10
7448.410645
 20
445.772522
 30
0.0
  0
VERTEX
  5
1E5
100
AcDbEntity
  8
0
100
AcDbVertex
100
AcDb2dVertex
 10
7447.93457
 20
445.815552
 30
0.0
  0
VERTEX
  5
1E6
100
AcDbEntity
  8
0
100
AcDbVertex
100
AcDb2dVertex
 10
7447.373047
 20
445.867889
 30
0.0
  0
VERTEX
  5
1E7
100
AcDbEntity
  8
0
100
AcDbVertex
100
AcDb2dVertex
 10
7446.811523
 20
445.923401
 30
0.0
  0
VERTEX
  5
1E8
100
AcDbEntity
  8
0
100
AcDbVertex
100
AcDb2dVertex
 10
7446.318848
 20
445.975037
 30
0.0
  0
VERTEX
  5
1E9
100
AcDbEntity
  8
0
100
AcDbVertex
100
AcDb2dVertex
 10
7445.825684
 20
446.02829
 30
0.0
  0
VERTEX
  5
1EA
100
AcDbEntity
  8
0
100
AcDbVertex
100
AcDb2dVertex
 10
7445.304199
 20
446.085815
 30
0.0
  0
VERTEX
  5
1EB
100
AcDbEntity
  8
0
100
AcDbVertex
100
AcDb2dVertex
 10
7444.781738
 20
446.144409
 30
0.0
  0
VERTEX
  5
1EC
100
AcDbEntity
  8
0
100
AcDbVertex
100
AcDb2dVertex
 10
7444.246094
 20
446.206848
 30
0.0
  0
VERTEX
  5
1ED
100
AcDbEntity
  8
0
100
AcDbVertex
100
AcDb2dVertex
 10
7443.710449
 20
446.271637
 30
0.0
  0
VERTEX
  5
1EE
100
AcDbEntity
  8
0
100
AcDbVertex
100
AcDb2dVertex
 10
7443.239746
 20
446.330963
 30
0.0
  0
VERTEX
  5
1EF
100
AcDbEntity
  8
0
100
AcDbVertex
100
AcDb2dVertex
 10
7442.769043
 20
446.391785
 30
0.0
  0
VERTEX
  5
1F0
100
AcDbEntity
  8
0
100
AcDbVertex
100
AcDb2dVertex
 10
7442.18457
 20
446.469055
 30
0.0
  0
VERTEX
  5
1F1
100
AcDbEntity
  8
0
100
AcDbVertex
100
AcDb2dVertex
 10
7441.600586
 20
446.548157
 30
0.0
  0
VERTEX
  5
1F2
100
AcDbEntity
  8
0
100
AcDbVertex
100
AcDb2dVertex
 10
7440.977051
 20
446.635132
 30
0.0
  0
VERTEX
  5
1F3
100
AcDbEntity
  8
0
100
AcDbVertex
100
AcDb2dVertex
 10
7440.354492
 20
446.725006
 30
0.0
  0
VERTEX
  5
1F4
100
AcDbEntity
  8
0
100
AcDbVertex
100
AcDb2dVertex
 10
7439.846191
 20
446.800476
 30
0.0
  0
VERTEX
  5
1F5
100
AcDbEntity
  8
0
100
AcDbVertex
100
AcDb2dVertex
 10
7439.338379
 20
446.876984
 30
0.0
  0
VERTEX
  5
1F6
100
AcDbEntity
  8
0
100
AcDbVertex
100
AcDb2dVertex
 10
7438.798828
 20
446.959045
 30
0.0
  0
VERTEX
  5
1F7
100
AcDbEntity
  8
0
100
AcDbVertex
100
AcDb2dVertex
 10
7438.259277
 20
447.042877
 30
0.0
  0
VERTEX
  5
1F8
100
AcDbEntity
  8
0
100
AcDbVertex
100
AcDb2dVertex
 10
7437.79541
 20
447.117401
 30
0.0
  0
VERTEX
  5
1F9
100
AcDbEntity
  8
0
100
AcDbVertex
100
AcDb2dVertex
 10
7437.331055
 20
447.193573
 30
0.0
  0
VERTEX
  5
1FA
100
AcDbEntity
  8
0
100
AcDbVertex
100
AcDb2dVertex
 10
7436.808594
 20
447.280731
 30
0.0
  0
VERTEX
  5
1FB
100
AcDbEntity
  8
0
100
AcDbVertex
100
AcDb2dVertex
 10
7436.285645
 20
447.369019
 30
0.0
  0
VERTEX
  5
1FC
100
AcDbEntity
  8
0
100
AcDbVertex
100
AcDb2dVertex
 10
7435.796387
 20
447.452698
 30
0.0
  0
VERTEX
  5
1FD
100
AcDbEntity
  8
0
100
AcDbVertex
100
AcDb2dVertex
 10
7435.307617
 20
447.537811
 30
0.0
  0
VERTEX
  5
1FE
100
AcDbEntity
  8
0
100
AcDbVertex
100
AcDb2dVertex
 10
7434.799316
 20
447.628662
 30
0.0
  0
VERTEX
  5
1FF
100
AcDbEntity
  8
0
100
AcDbVertex
100
AcDb2dVertex
 10
7434.291016
 20
447.720184
 30
0.0
  0
SEQEND
  5
200
100
AcDbEntity
  8
0
  0
POLYLINE
  5
201
100
AcDbEntity
  8
0
 62
     7
100
AcDb2dPolyline
 66
     1
 10
0.0
 20
0.0
 30
0.0
 71
    42
  0
VERTEX
  5
202
100
AcDbEntity
  8
0
100
AcDbVertex
100
AcDb2dVertex
 10
7424.897949
 20
463.439972
 30
0.0
  0
VERTEX
  5
203
100
AcDbEntity
  8
0
100
AcDbVertex
100
AcDb2dVertex
 10
7425.933105
 20
465.967743
 30
0.0
  0
VERTEX
  5
204
100
AcDbEntity
  8
0
100
AcDbVertex
100
AcDb2dVertex
 10
7427.202148
 20
468.406189
 30
0.0
  0
VERTEX
  5
205
100
AcDbEntity
  8
0
100
AcDbVertex
100
AcDb2dVertex
 10
7428.625488
 20
470.605469
 30
0.0
  0
VERTEX
  5
206
100
AcDbEntity
  8
0
100
AcDbVertex
100
AcDb2dVertex
 10
7430.255859
 20
472.649475
 30
0.0
  0
VERTEX
  5
207
100
AcDbEntity
  8
0
100
AcDbVertex
100
AcDb2dVertex
 10
7432.166992
 20
474.572784
 30
0.0
  0
VERTEX
  5
208
100
AcDbEntity
  8
0
100
AcDbVertex
100
AcDb2dVertex
 10
7435.913086
 20
477.304199
 30
0.0
  0
VERTEX
  5
209
100
AcDbEntity
  8
0
100
AcDbVertex
100
AcDb2dVertex
 10
7440.394531
 20
479.422333
 30
0.0
  0
VERTEX
  5
20A
100
AcDbEntity
  8
0
100
AcDbVertex
100
AcDb2dVertex
 10
7442.274902
 20
480.040344
 30
0.0
  0
VERTEX
  5
20B
100
AcDbEntity
  8
0
100
AcDbVertex
100
AcDb2dVertex
 10
7446.376953
 20
480.952393
 30
0.0
  0
VERTEX
  5
20C
100
AcDbEntity
  8
0
100
AcDbVertex
100
AcDb2dVertex
 10
7450.549316
 20
481.445465
 30
0.0
  0
VERTEX
  5
20D
100
AcDbEntity
  8
0
100
AcDbVertex
100
AcDb2dVertex
 10
7454.516113
 20
481.654602
 30
0.0
  0
VERTEX
  5
20E
100
AcDbEntity
  8
0
100
AcDbVertex
100
AcDb2dVertex
 10
7458.48877
 20
481.610077
 30
0.0
  0
VERTEX
  5
20F
100
AcDbEntity
  8
0
100
AcDbVertex
100
AcDb2dVertex
 10
7462.421875
 20
481.266418
 30
0.0
  0
VERTEX
  5
210
100
AcDbEntity
  8
0
100
AcDbVertex
100
AcDb2dVertex
 10
7466.290527
 20
480.518768
 30
0.0
  0
VERTEX
  5
211
100
AcDbEntity
  8
0
100
AcDbVertex
100
AcDb2dVertex
 10
7468.489258
 20
479.844391
 30
0.0
  0
VERTEX
  5
212
100
AcDbEntity
  8
0
100
AcDbVertex
100
AcDb2dVertex
 10
7470.612793
 20
478.948456
 30
0.0
  0
VERTEX
  5
213
100
AcDbEntity
  8
0
100
AcDbVertex
100
AcDb2dVertex
 10
7472.755859
 20
477.680084
 30
0.0
  0
VERTEX
  5
214
100
AcDbEntity
  8
0
100
AcDbVertex
100
AcDb2dVertex
 10
7474.59668
 20
476.009644
 30
0.0
  0
VERTEX
  5
215
100
AcDbEntity
  8
0
100
AcDbVertex
100
AcDb2dVertex
 10
7475.411621
 20
474.869629
 30
0.0
  0
VERTEX
  5
216
100
AcDbEntity
  8
0
100
AcDbVertex
100
AcDb2dVertex
 10
7475.942383
 20
473.589325
 30
0.0
  0
VERTEX
  5
217
100
AcDbEntity
  8
0
100
AcDbVertex
100
AcDb2dVertex
 10
7476.087891
 20
472.548004
 30
0.0
  0
VERTEX
  5
218
100
AcDbEntity
  8
0
100
AcDbVertex
100
AcDb2dVertex
 10
7475.728027
 20
470.36853
 30
0.0
  0
VERTEX
  5
219
100
AcDbEntity
  8
0
100
AcDbVertex
100
AcDb2dVertex
 10
7475.242188
 20
469.333984
 30
0.0
  0
VERTEX
  5
21A
100
AcDbEntity
  8
0
100
AcDbVertex
100
AcDb2dVertex
 10
7473.972168
 20
467.782166
 30
0.0
  0
VERTEX
  5
21B
100
AcDbEntity
  8
0
100
AcDbVertex
100
AcDb2dVertex
 10
7472.370117
 20
466.563232
 30
0.0
  0
VERTEX
  5
21C
100
AcDbEntity
  8
0
100
AcDbVertex
100
AcDb2dVertex
 10
7470.916992
 20
465.73468
 30
0.0
  0
VERTEX
  5
21D
100
AcDbEntity
  8
0
100
AcDbVertex
100
AcDb2dVertex
 10
7469.399414
 20
465.048401
 30
0.0
  0
VERTEX
  5
21E
100
AcDbEntity
  8
0
100
AcDbVertex
100
AcDb2dVertex
 10
7466.455566
 20
464.085632
 30
0.0
  0
VERTEX
  5
21F
100
AcDbEntity
  8
0
100
AcDbVertex
100
AcDb2dVertex
 10
7463.413086
 20
463.448425
 30
0.0
  0
VERTEX
  5
220
100
AcDbEntity
  8
0
100
AcDbVertex
100
AcDb2dVertex
 10
7459.316406
 20
462.967773
 30
0.0
  0
VERTEX
  5
221
100
AcDbEntity
  8
0
100
AcDbVertex
100
AcDb2dVertex
 10
7455.198242
 20
462.815216
 30
0.0
  0
VERTEX
  5
222
100
AcDbEntity
  8
0
100
AcDbVertex
100
AcDb2dVertex
 10
7452.057617
 20
462.871429
 30
0.0
  0
VERTEX
  5
223
100
AcDbEntity
  8
0
100
AcDbVertex
100
AcDb2dVertex
 10
7448.920898
 20
463.052368
 30
0.0
  0
VERTEX
  5
224
100
AcDbEntity
  8
0
100
AcDbVertex
100
AcDb2dVertex
 10
7445.827637
 20
463.336365
 30
0.0
  0
VERTEX
  5
225
100
AcDbEntity
  8
0
100
AcDbVertex
100
AcDb2dVertex
 10
7442.744141
 20
463.71228
 30
0.0
  0
VERTEX
  5
226
100
AcDbEntity
  8
0
100
AcDbVertex
100
AcDb2dVertex
 10
7440.287598
 20
464.07135
 30
0.0
  0
VERTEX
  5
227
100
AcDbEntity
  8
0
100
AcDbVertex
100
AcDb2dVertex
 10
7437.838379
 20
464.477478
 30
0.0
  0
VERTEX
  5
228
100
AcDbEntity
  8
0
100
AcDbVertex
100
AcDb2dVertex
 10
7435.780273
 20
464.853363
 30
0.0
  0
VERTEX
  5
229
100
AcDbEntity
  8
0
100
AcDbVertex
100
AcDb2dVertex
 10
7433.727539
 20
465.25769
 30
0.0
  0
VERTEX
  5
22A
100
AcDbEntity
  8
0
100
AcDbVertex
100
AcDb2dVertex
 10
7431.995117
 20
465.620758
 30
0.0
  0
VERTEX
  5
22B
100
AcDbEntity
  8
0
100
AcDbVertex
100
AcDb2dVertex
 10
7430.267578
 20
466.002014
 30
0.0
  0
SEQEND
  5
22C
100
AcDbEntity
  8
0
  0
POLYLINE
  5
22D
100
AcDbEntity
  8
0
 62
     7
100
AcDb2dPolyline
 66
     1
 10
0.0
 20
0.0
 30
0.0
 70
     1
 71
    62
  0
VERTEX
  5
22E
100
AcDbEntity
  8
0
100
AcDbVertex
100
AcDb2dVertex
 10
7550.848633
 20
464.817474
 30
0.0
  0
VERTEX
  5
22F
100
AcDbEntity
  8
0
100
AcDbVertex
100
AcDb2dVertex
 10
7556.925293
 20
466.568542
 30
0.0
  0
VERTEX
  5
230
100
AcDbEntity
  8
0
100
AcDbVertex
100
AcDb2dVertex
 10
7563.126953
 20
467.765839
 30
0.0
  0
VERTEX
  5
231
100
AcDbEntity
  8
0
100
AcDbVertex
100
AcDb2dVertex
 10
7567.152832
 20
468.253113
 30
0.0
  0
VERTEX
  5
232
100
AcDbEntity
  8
0
100
AcDbVertex
100
AcDb2dVertex
 10
7571.198242
 20
468.527557
 30
0.0
  0
VERTEX
  5
233
100
AcDbEntity
  8
0
100
AcDbVertex
100
AcDb2dVertex
 10
7574.067383
 20
468.596069
 30
0.0
  0
VERTEX
  5
234
100
AcDbEntity
  8
0
100
AcDbVertex
100
AcDb2dVertex
 10
7576.9375
 20
468.561249
 30
0.0
  0
VERTEX
  5
235
100
AcDbEntity
  8
0
100
AcDbVertex
100
AcDb2dVertex
 10
7579.602051
 20
468.436401
 30
0.0
  0
VERTEX
  5
236
100
AcDbEntity
  8
0
100
AcDbVertex
100
AcDb2dVertex
 10
7582.260742
 20
468.21994
 30
0.0
  0
VERTEX
  5
237
100
AcDbEntity
  8
0
100
AcDbVertex
100
AcDb2dVertex
 10
7585.59375
 20
467.812592
 30
0.0
  0
VERTEX
  5
238
100
AcDbEntity
  8
0
100
AcDbVertex
100
AcDb2dVertex
 10
7588.905273
 20
467.246735
 30
0.0
  0
VERTEX
  5
239
100
AcDbEntity
  8
0
100
AcDbVertex
100
AcDb2dVertex
 10
7592.353516
 20
466.469269
 30
0.0
  0
VERTEX
  5
23A
100
AcDbEntity
  8
0
100
AcDbVertex
100
AcDb2dVertex
 10
7595.749512
 20
465.490051
 30
0.0
  0
VERTEX
  5
23B
100
AcDbEntity
  8
0
100
AcDbVertex
100
AcDb2dVertex
 10
7597.844727
 20
464.765656
 30
0.0
  0
VERTEX
  5
23C
100
AcDbEntity
  8
0
100
AcDbVertex
100
AcDb2dVertex
 10
7599.90625
 20
463.950134
 30
0.0
  0
VERTEX
  5
23D
100
AcDbEntity
  8
0
100
AcDbVertex
100
AcDb2dVertex
 10
7601.989258
 20
463.007324
 30
0.0
  0
VERTEX
  5
23E
100
AcDbEntity
  8
0
100
AcDbVertex
100
AcDb2dVertex
 10
7604.018555
 20
461.953552
 30
0.0
  0
VERTEX
  5
23F
100
AcDbEntity
  8
0
100
AcDbVertex
100
AcDb2dVertex
 10
7606.192871
 20
460.643036
 30
0.0
  0
VERTEX
  5
240
100
AcDbEntity
  8
0
100
AcDbVertex
100
AcDb2dVertex
 10
7608.263184
 20
459.170868
 30
0.0
  0
VERTEX
  5
241
100
AcDbEntity
  8
0
100
AcDbVertex
100
AcDb2dVertex
 10
7610.401855
 20
457.329742
 30
0.0
  0
VERTEX
  5
242
100
AcDbEntity
  8
0
100
AcDbVertex
100
AcDb2dVertex
 10
7612.310059
 20
455.253723
 30
0.0
  0
VERTEX
  5
243
100
AcDbEntity
  8
0
100
AcDbVertex
100
AcDb2dVertex
 10
7613.62793
 20
453.403046
 30
0.0
  0
VERTEX
  5
244
100
AcDbEntity
  8
0
100
AcDbVertex
100
AcDb2dVertex
 10
7614.692871
 20
451.396942
 30
0.0
  0
VERTEX
  5
245
100
AcDbEntity
  8
0
100
AcDbVertex
100
AcDb2dVertex
 10
7615.427734
 20
449.316132
 30
0.0
  0
VERTEX
  5
246
100
AcDbEntity
  8
0
100
AcDbVertex
100
AcDb2dVertex
 10
7615.817871
 20
447.14505
 30
0.0
  0
VERTEX
  5
247
100
AcDbEntity
  8
0
100
AcDbVertex
100
AcDb2dVertex
 10
7615.743652
 20
444.183502
 30
0.0
  0
VERTEX
  5
248
100
AcDbEntity
  8
0
100
AcDbVertex
100
AcDb2dVertex
 10
7615.040527
 20
441.29834
 30
0.0
  0
VERTEX
  5
249
100
AcDbEntity
  8
0
100
AcDbVertex
100
AcDb2dVertex
 10
7613.36084
 20
437.898987
 30
0.0
  0
VERTEX
  5
24A
100
AcDbEntity
  8
0
100
AcDbVertex
100
AcDb2dVertex
 10
7610.692871
 20
434.546295
 30
0.0
  0
VERTEX
  5
24B
100
AcDbEntity
  8
0
100
AcDbVertex
100
AcDb2dVertex
 10
7607.819336
 20
431.937408
 30
0.0
  0
VERTEX
  5
24C
100
AcDbEntity
  8
0
100
AcDbVertex
100
AcDb2dVertex
 10
7604.999512
 20
429.907166
 30
0.0
  0
VERTEX
  5
24D
100
AcDbEntity
  8
0
100
AcDbVertex
100
AcDb2dVertex
 10
7602.028809
 20
428.150055
 30
0.0
  0
VERTEX
  5
24E
100
AcDbEntity
  8
0
100
AcDbVertex
100
AcDb2dVertex
 10
7598.715332
 20
426.521149
 30
0.0
  0
VERTEX
  5
24F
100
AcDbEntity
  8
0
100
AcDbVertex
100
AcDb2dVertex
 10
7595.290527
 20
425.125732
 30
0.0
  0
VERTEX
  5
250
100
AcDbEntity
  8
0
100
AcDbVertex
100
AcDb2dVertex
 10
7592.415039
 20
424.143372
 30
0.0
  0
VERTEX
  5
251
100
AcDbEntity
  8
0
100
AcDbVertex
100
AcDb2dVertex
 10
7589.49707
 20
423.301056
 30
0.0
  0
VERTEX
  5
252
100
AcDbEntity
  8
0
100
AcDbVertex
100
AcDb2dVertex
 10
7586.041992
 20
422.48349
 30
0.0
  0
VERTEX
  5
253
100
AcDbEntity
  8
0
100
AcDbVertex
100
AcDb2dVertex
 10
7582.550293
 20
421.838623
 30
0.0
  0
VERTEX
  5
254
100
AcDbEntity
  8
0
100
AcDbVertex
100
AcDb2dVertex
 10
7578.380371
 20
421.290405
 30
0.0
  0
VERTEX
  5
255
100
AcDbEntity
  8
0
100
AcDbVertex
100
AcDb2dVertex
 10
7574.187012
 20
420.970703
 30
0.0
  0
VERTEX
  5
256
100
AcDbEntity
  8
0
100
AcDbVertex
100
AcDb2dVertex
 10
7570.583496
 20
420.875092
 30
0.0
  0
VERTEX
  5
257
100
AcDbEntity
  8
0
100
AcDbVertex
100
AcDb2dVertex
 10
7566.978027
 20
420.942841
 30
0.0
  0
VERTEX
  5
258
100
AcDbEntity
  8
0
100
AcDbVertex
100
AcDb2dVertex
 10
7561.904297
 20
421.31839
 30
0.0
  0
VERTEX
  5
259
100
AcDbEntity
  8
0
100
AcDbVertex
100
AcDb2dVertex
 10
7556.869629
 20
422.043304
 30
0.0
  0
VERTEX
  5
25A
100
AcDbEntity
  8
0
100
AcDbVertex
100
AcDb2dVertex
 10
7553.029297
 20
422.860504
 30
0.0
  0
VERTEX
  5
25B
100
AcDbEntity
  8
0
100
AcDbVertex
100
AcDb2dVertex
 10
7549.248047
 20
423.923065
 30
0.0
  0
VERTEX
  5
25C
100
AcDbEntity
  8
0
100
AcDbVertex
100
AcDb2dVertex
 10
7545.535156
 20
425.260315
 30
0.0
  0
VERTEX
  5
25D
100
AcDbEntity
  8
0
100
AcDbVertex
100
AcDb2dVertex
 10
7541.950195
 20
426.900574
 30
0.0
  0
VERTEX
  5
25E
100
AcDbEntity
  8
0
100
AcDbVertex
100
AcDb2dVertex
 10
7538.217285
 20
429.102417
 30
0.0
  0
VERTEX
  5
25F
100
AcDbEntity
  8
0
100
AcDbVertex
100
AcDb2dVertex
 10
7534.787109
 20
431.790924
 30
0.0
  0
VERTEX
  5
260
100
AcDbEntity
  8
0
100
AcDbVertex
100
AcDb2dVertex
 10
7531.984375
 20
434.821899
 30
0.0
  0
VERTEX
  5
261
100
AcDbEntity
  8
0
100
AcDbVertex
100
AcDb2dVertex
 10
7530.858398
 20
436.531921
 30
0.0
  0
VERTEX
  5
262
100
AcDbEntity
  8
0
100
AcDbVertex
100
AcDb2dVertex
 10
7529.992676
 20
438.376129
 30
0.0
  0
VERTEX
  5
263
100
AcDbEntity
  8
0
100
AcDbVertex
100
AcDb2dVertex
 10
7529.23291
 20
441.722565
 30
0.0
  0
VERTEX
  5
264
100
AcDbEntity
  8
0
100
AcDbVertex
100
AcDb2dVertex
 10
7529.328125
 20
445.510101
 30
0.0
  0
VERTEX
  5
265
100
AcDbEntity
  8
0
100
AcDbVertex
100
AcDb2dVertex
 10
7530.361328
 20
449.397461
 30
0.0
  0
VERTEX
  5
266
100
AcDbEntity
  8
0
100
AcDbVertex
100
AcDb2dVertex
 10
7530.980957
 20
450.772217
 30
0.0
  0
VERTEX
  5
267
100
AcDbEntity
  8
0
100
AcDbVertex
100
AcDb2dVertex
 10
7533.125488
 20
453.998871
 30
0.0
  0
VERTEX
  5
268
100
AcDbEntity
  8
0
100
AcDbVertex
100
AcDb2dVertex
 10
7536.208008
 20
456.993744
 30
0.0
  0
VERTEX
  5
269
100
AcDbEntity
  8
0
100
AcDbVertex
100
AcDb2dVertex
 10
7538.415527
 20
458.608368
 30
0.0
  0
VERTEX
  5
26A
100
AcDbEntity
  8
0
100
AcDbVertex
100
AcDb2dVertex
 10
7543.411133
 20
461.455505
 30
0.0
  0
VERTEX
  5
26B
100
AcDbEntity
  8
0
100
AcDbVertex
100
AcDb2dVertex
 10
7549.686523
 20
464.31012
 30
0.0
  0
SEQEND
  5
26C
100
AcDbEntity
  8
0
  0
POLYLINE
  5
26D
100
AcDbEntity
  8
0
 62
     7
100
AcDb2dPolyline
 66
     1
 10
0.0
 20
0.0
 30
0.0
 70
     1
 71
    62
  0
VERTEX
  5
26E
100
AcDbEntity
  8
0
100
AcDbVertex
100
AcDb2dVertex
 10
7566.136719
 20
454.138062
 30
0.0
  0
VERTEX
  5
26F
100
AcDbEntity
  8
0
100
AcDbVertex
100
AcDb2dVertex
 10
7569.508301
 20
454.733307
 30
0.0
  0
VERTEX
  5
270
100
AcDbEntity
  8
0
100
AcDbVertex
100
AcDb2dVertex
 10
7572.922852
 20
454.960571
 30
0.0
  0
VERTEX
  5
271
100
AcDbEntity
  8
0
100
AcDbVertex
100
AcDb2dVertex
 10
7574.922363
 20
454.91864
 30
0.0
  0
VERTEX
  5
272
100
AcDbEntity
  8
0
100
AcDbVertex
100
AcDb2dVertex
 10
7576.914063
 20
454.744873
 30
0.0
  0
VERTEX
  5
273
100
AcDbEntity
  8
0
100
AcDbVertex
100
AcDb2dVertex
 10
7578.105469
 20
454.575653
 30
0.0
  0
VERTEX
  5
274
100
AcDbEntity
  8
0
100
AcDbVertex
100
AcDb2dVertex
 10
7579.288574
 20
454.355042
 30
0.0
  0
VERTEX
  5
275
100
AcDbEntity
  8
0
100
AcDbVertex
100
AcDb2dVertex
 10
7580.91748
 20
453.956787
 30
0.0
  0
VERTEX
  5
276
100
AcDbEntity
  8
0
100
AcDbVertex
100
AcDb2dVertex
 10
7582.514648
 20
453.445557
 30
0.0
  0
VERTEX
  5
277
100
AcDbEntity
  8
0
100
AcDbVertex
100
AcDb2dVertex
 10
7583.741699
 20
452.957733
 30
0.0
  0
VERTEX
  5
278
100
AcDbEntity
  8
0
100
AcDbVertex
100
AcDb2dVertex
 10
7584.931152
 20
452.38681
 30
0.0
  0
VERTEX
  5
279
100
AcDbEntity
  8
0
100
AcDbVertex
100
AcDb2dVertex
 10
7585.944336
 20
451.804901
 30
0.0
  0
VERTEX
  5
27A
100
AcDbEntity
  8
0
100
AcDbVertex
100
AcDb2dVertex
 10
7586.907227
 20
451.144073
 30
0.0
  0
VERTEX
  5
27B
100
AcDbEntity
  8
0
100
AcDbVertex
100
AcDb2dVertex
 10
7587.804688
 20
450.397369
 30
0.0
  0
VERTEX
  5
27C
100
AcDbEntity
  8
0
100
AcDbVertex
100
AcDb2dVertex
 10
7588.613281
 20
449.554565
 30
0.0
  0
VERTEX
  5
27D
100
AcDbEntity
  8
0
100
AcDbVertex
100
AcDb2dVertex
 10
7589.35791
 20
448.52533
 30
0.0
  0
VERTEX
  5
27E
100
AcDbEntity
  8
0
100
AcDbVertex
100
AcDb2dVertex
 10
7589.916016
 20
447.388428
 30
0.0
  0
VERTEX
  5
27F
100
AcDbEntity
  8
0
100
AcDbVertex
100
AcDb2dVertex
 10
7590.124512
 20
446.722443
 30
0.0
  0
VERTEX
  5
280
100
AcDbEntity
  8
0
100
AcDbVertex
100
AcDb2dVertex
 10
7590.254395
 20
446.03653
 30
0.0
  0
VERTEX
  5
281
100
AcDbEntity
  8
0
100
AcDbVertex
100
AcDb2dVertex
 10
7590.29541
 20
444.957123
 30
0.0
  0
VERTEX
  5
282
100
AcDbEntity
  8
0
100
AcDbVertex
100
AcDb2dVertex
 10
7590.149414
 20
443.885773
 30
0.0
  0
VERTEX
  5
283
100
AcDbEntity
  8
0
100
AcDbVertex
100
AcDb2dVertex
 10
7589.945801
 20
443.166534
 30
0.0
  0
VERTEX
  5
284
100
AcDbEntity
  8
0
100
AcDbVertex
100
AcDb2dVertex
 10
7589.665527
 20
442.474396
 30
0.0
  0
VERTEX
  5
285
100
AcDbEntity
  8
0
100
AcDbVertex
100
AcDb2dVertex
 10
7588.918945
 20
441.204956
 30
0.0
  0
VERTEX
  5
286
100
AcDbEntity
  8
0
100
AcDbVertex
100
AcDb2dVertex
 10
7587.970703
 20
440.07077
 30
0.0
  0
VERTEX
  5
287
100
AcDbEntity
  8
0
100
AcDbVertex
100
AcDb2dVertex
 10
7586.616699
 20
438.870178
 30
0.0
  0
VERTEX
  5
288
100
AcDbEntity
  8
0
100
AcDbVertex
100
AcDb2dVertex
 10
7585.117188
 20
437.859039
 30
0.0
  0
VERTEX
  5
289
100
AcDbEntity
  8
0
100
AcDbVertex
100
AcDb2dVertex
 10
7584.015137
 20
437.252228
 30
0.0
  0
VERTEX
  5
28A
100
AcDbEntity
  8
0
100
AcDbVertex
100
AcDb2dVertex
 10
7582.876465
 20
436.717407
 30
0.0
  0
VERTEX
  5
28B
100
AcDbEntity
  8
0
100
AcDbVertex
100
AcDb2dVertex
 10
7581.439453
 20
436.150299
 30
0.0
  0
VERTEX
  5
28C
100
AcDbEntity
  8
0
100
AcDbVertex
100
AcDb2dVertex
 10
7579.967773
 20
435.675171
 30
0.0
  0
VERTEX
  5
28D
100
AcDbEntity
  8
0
100
AcDbVertex
100
AcDb2dVertex
 10
7578.654785
 20
435.328156
 30
0.0
  0
VERTEX
  5
28E
100
AcDbEntity
  8
0
100
AcDbVertex
100
AcDb2dVertex
 10
7577.327148
 20
435.044708
 30
0.0
  0
VERTEX
  5
28F
100
AcDbEntity
  8
0
100
AcDbVertex
100
AcDb2dVertex
 10
7576.063477
 20
434.83432
 30
0.0
  0
VERTEX
  5
290
100
AcDbEntity
  8
0
100
AcDbVertex
100
AcDb2dVertex
 10
7574.791992
 20
434.677063
 30
0.0
  0
VERTEX
  5
291
100
AcDbEntity
  8
0
100
AcDbVertex
100
AcDb2dVertex
 10
7573.507324
 20
434.570862
 30
0.0
  0
VERTEX
  5
292
100
AcDbEntity
  8
0
100
AcDbVertex
100
AcDb2dVertex
 10
7572.219727
 20
434.516846
 30
0.0
  0
VERTEX
  5
293
100
AcDbEntity
  8
0
100
AcDbVertex
100
AcDb2dVertex
 10
7570.691406
 20
434.52121
 30
0.0
  0
VERTEX
  5
294
100
AcDbEntity
  8
0
100
AcDbVertex
100
AcDb2dVertex
 10
7569.166504
 20
434.601074
 30
0.0
  0
VERTEX
  5
295
100
AcDbEntity
  8
0
100
AcDbVertex
100
AcDb2dVertex
 10
7568.036133
 20
434.710541
 30
0.0
  0
VERTEX
  5
296
100
AcDbEntity
  8
0
100
AcDbVertex
100
AcDb2dVertex
 10
7566.909668
 20
434.863831
 30
0.0
  0
VERTEX
  5
297
100
AcDbEntity
  8
0
100
AcDbVertex
100
AcDb2dVertex
 10
7565.495117
 20
435.122925
 30
0.0
  0
VERTEX
  5
298
100
AcDbEntity
  8
0
100
AcDbVertex
100
AcDb2dVertex
 10
7564.09668
 20
435.459442
 30
0.0
  0
VERTEX
  5
299
100
AcDbEntity
  8
0
100
AcDbVertex
100
AcDb2dVertex
 10
7562.958984
 20
435.799103
 30
0.0
  0
VERTEX
  5
29A
100
AcDbEntity
  8
0
100
AcDbVertex
100
AcDb2dVertex
 10
7561.841309
 20
436.197754
 30
0.0
  0
VERTEX
  5
29B
100
AcDbEntity
  8
0
100
AcDbVertex
100
AcDb2dVertex
 10
7561.088867
 20
436.506653
 30
0.0
  0
VERTEX
  5
29C
100
AcDbEntity
  8
0
100
AcDbVertex
100
AcDb2dVertex
 10
7560.349609
 20
436.847382
 30
0.0
  0
VERTEX
  5
29D
100
AcDbEntity
  8
0
100
AcDbVertex
100
AcDb2dVertex
 10
7558.90625
 20
437.645721
 30
0.0
  0
VERTEX
  5
29E
100
AcDbEntity
  8
0
100
AcDbVertex
100
AcDb2dVertex
 10
7557.560059
 20
438.600098
 30
0.0
  0
VERTEX
  5
29F
100
AcDbEntity
  8
0
100
AcDbVertex
100
AcDb2dVertex
 10
7556.48877
 20
439.582642
 30
0.0
  0
VERTEX
  5
2A0
100
AcDbEntity
  8
0
100
AcDbVertex
100
AcDb2dVertex
 10
7555.592285
 20
440.728699
 30
0.0
  0
VERTEX
  5
2A1
100
AcDbEntity
  8
0
100
AcDbVertex
100
AcDb2dVertex
 10
7554.721191
 20
442.757874
 30
0.0
  0
VERTEX
  5
2A2
100
AcDbEntity
  8
0
100
AcDbVertex
100
AcDb2dVertex
 10
7554.555176
 20
444.947449
 30
0.0
  0
VERTEX
  5
2A3
100
AcDbEntity
  8
0
100
AcDbVertex
100
AcDb2dVertex
 10
7555.07373
 20
446.833069
 30
0.0
  0
VERTEX
  5
2A4
100
AcDbEntity
  8
0
100
AcDbVertex
100
AcDb2dVertex
 10
7556.084473
 20
448.52475
 30
0.0
  0
VERTEX
  5
2A5
100
AcDbEntity
  8
0
100
AcDbVertex
100
AcDb2dVertex
 10
7556.921387
 20
449.482574
 30
0.0
  0
VERTEX
  5
2A6
100
AcDbEntity
  8
0
100
AcDbVertex
100
AcDb2dVertex
 10
7557.860352
 20
450.332764
 30
0.0
  0
VERTEX
  5
2A7
100
AcDbEntity
  8
0
100
AcDbVertex
100
AcDb2dVertex
 10
7558.862793
 20
451.080353
 30
0.0
  0
VERTEX
  5
2A8
100
AcDbEntity
  8
0
100
AcDbVertex
100
AcDb2dVertex
 10
7559.92334
 20
451.745422
 30
0.0
  0
VERTEX
  5
2A9
100
AcDbEntity
  8
0
100
AcDbVertex
100
AcDb2dVertex
 10
7561.196289
 20
452.416504
 30
0.0
  0
VERTEX
  5
2AA
100
AcDbEntity
  8
0
100
AcDbVertex
100
AcDb2dVertex
 10
7562.513672
 20
452.995117
 30
0.0
  0
VERTEX
  5
2AB
100
AcDbEntity
  8
0
100
AcDbVertex
100
AcDb2dVertex
 10
7564.306152
 20
453.631012
 30
0.0
  0
SEQEND
  5
2AC
100
AcDbEntity
  8
0
  0
POLYLINE
  5
2AD
100
AcDbEntity
  8
0
 62
     7
100
AcDb2dPolyline
 66
     1
 10
0.0
 20
0.0
 30
0.0
 71
    45
  0
VERTEX
  5
2AE
100
AcDbEntity
  8
0
100
AcDbVertex
100
AcDb2dVertex
 10
7622.176758
 20
446.378021
 30
0.0
  0
VERTEX
  5
2AF
100
AcDbEntity
  8
0
100
AcDbVertex
100
AcDb2dVertex
 10
7622.901855
 20
448.205231
 30
0.0
  0
VERTEX
  5
2B0
100
AcDbEntity
  8
0
100
AcDbVertex
100
AcDb2dVertex
 10
7623.737793
 20
449.987213
 30
0.0
  0
VERTEX
  5
2B1
100
AcDbEntity
  8
0
100
AcDbVertex
100
AcDb2dVertex
 10
7624.989258
 20
452.217804
 30
0.0
  0
VERTEX
  5
2B2
100
AcDbEntity
  8
0
100
AcDbVertex
100
AcDb2dVertex
 10
7626.422852
 20
454.333069
 30
0.0
  0
VERTEX
  5
2B3
100
AcDbEntity
  8
0
100
AcDbVertex
100
AcDb2dVertex
 10
7627.328613
 20
455.486237
 30
0.0
  0
VERTEX
  5
2B4
100
AcDbEntity
  8
0
100
AcDbVertex
100
AcDb2dVertex
 10
7628.291016
 20
456.591644
 30
0.0
  0
VERTEX
  5
2B5
100
AcDbEntity
  8
0
100
AcDbVertex
100
AcDb2dVertex
 10
7629.832031
 20
458.148041
 30
0.0
  0
VERTEX
  5
2B6
100
AcDbEntity
  8
0
100
AcDbVertex
100
AcDb2dVertex
 10
7631.484863
 20
459.585602
 30
0.0
  0
VERTEX
  5
2B7
100
AcDbEntity
  8
0
100
AcDbVertex
100
AcDb2dVertex
 10
7632.695313
 20
460.513428
 30
0.0
  0
VERTEX
  5
2B8
100
AcDbEntity
  8
0
100
AcDbVertex
100
AcDb2dVertex
 10
7633.948242
 20
461.381165
 30
0.0
  0
VERTEX
  5
2B9
100
AcDbEntity
  8
0
100
AcDbVertex
100
AcDb2dVertex
 10
7635.400879
 20
462.284576
 30
0.0
  0
VERTEX
  5
2BA
100
AcDbEntity
  8
0
100
AcDbVertex
100
AcDb2dVertex
 10
7636.896973
 20
463.114594
 30
0.0
  0
VERTEX
  5
2BB
100
AcDbEntity
  8
0
100
AcDbVertex
100
AcDb2dVertex
 10
7640.062988
 20
464.589172
 30
0.0
  0
VERTEX
  5
2BC
100
AcDbEntity
  8
0
100
AcDbVertex
100
AcDb2dVertex
 10
7643.344238
 20
465.79126
 30
0.0
  0
VERTEX
  5
2BD
100
AcDbEntity
  8
0
100
AcDbVertex
100
AcDb2dVertex
 10
7646.313477
 20
466.649628
 30
0.0
  0
VERTEX
  5
2BE
100
AcDbEntity
  8
0
100
AcDbVertex
100
AcDb2dVertex
 10
7649.326172
 20
467.333923
 30
0.0
  0
VERTEX
  5
2BF
100
AcDbEntity
  8
0
100
AcDbVertex
100
AcDb2dVertex
 10
7653.230469
 20
467.986115
 30
0.0
  0
VERTEX
  5
2C0
100
AcDbEntity
  8
0
100
AcDbVertex
100
AcDb2dVertex
 10
7657.166992
 20
468.425232
 30
0.0
  0
VERTEX
  5
2C1
100
AcDbEntity
  8
0
100
AcDbVertex
100
AcDb2dVertex
 10
7661.831055
 20
468.712708
 30
0.0
  0
VERTEX
  5
2C2
100
AcDbEntity
  8
0
100
AcDbVertex
100
AcDb2dVertex
 10
7666.50293
 20
468.747833
 30
0.0
  0
VERTEX
  5
2C3
100
AcDbEntity
  8
0
100
AcDbVertex
100
AcDb2dVertex
 10
7668.625488
 20
468.674591
 30
0.0
  0
VERTEX
  5
2C4
100
AcDbEntity
  8
0
100
AcDbVertex
100
AcDb2dVertex
 10
7670.743652
 20
468.531616
 30
0.0
  0
VERTEX
  5
2C5
100
AcDbEntity
  8
0
100
AcDbVertex
100
AcDb2dVertex
 10
7673.049316
 20
468.280579
 30
0.0
  0
VERTEX
  5
2C6
100
AcDbEntity
  8
0
100
AcDbVertex
100
AcDb2dVertex
 10
7675.34082
 20
467.920044
 30
0.0
  0
VERTEX
  5
2C7
100
AcDbEntity
  8
0
100
AcDbVertex
100
AcDb2dVertex
 10
7677.597656
 20
467.442291
 30
0.0
  0
VERTEX
  5
2C8
100
AcDbEntity
  8
0
100
AcDbVertex
100
AcDb2dVertex
 10
7679.822266
 20
466.83075
 30
0.0
  0
VERTEX
  5
2C9
100
AcDbEntity
  8
0
100
AcDbVertex
100
AcDb2dVertex
 10
7681.920898
 20
466.099396
 30
0.0
  0
VERTEX
  5
2CA
100
AcDbEntity
  8
0
100
AcDbVertex
100
AcDb2dVertex
 10
7683.958496
 20
465.209351
 30
0.0
  0
VERTEX
  5
2CB
100
AcDbEntity
  8
0
100
AcDbVertex
100
AcDb2dVertex
 10
7685.931641
 20
464.128448
 30
0.0
  0
VERTEX
  5
2CC
100
AcDbEntity
  8
0
100
AcDbVertex
100
AcDb2dVertex
 10
7687.779297
 20
462.848541
 30
0.0
  0
VERTEX
  5
2CD
100
AcDbEntity
  8
0
100
AcDbVertex
100
AcDb2dVertex
 10
7688.830078
 20
461.957397
 30
0.0
  0
VERTEX
  5
2CE
100
AcDbEntity
  8
0
100
AcDbVertex
100
AcDb2dVertex
 10
7689.804688
 20
460.981628
 30
0.0
  0
VERTEX
  5
2CF
100
AcDbEntity
  8
0
100
AcDbVertex
100
AcDb2dVertex
 10
7691.056641
 20
459.412231
 30
0.0
  0
VERTEX
  5
2D0
100
AcDbEntity
  8
0
100
AcDbVertex
100
AcDb2dVertex
 10
7692.069336
 20
457.680756
 30
0.0
  0
VERTEX
  5
2D1
100
AcDbEntity
  8
0
100
AcDbVertex
100
AcDb2dVertex
 10
7692.580078
 20
456.474487
 30
0.0
  0
VERTEX
  5
2D2
100
AcDbEntity
  8
0
100
AcDbVertex
100
AcDb2dVertex
 10
7692.965332
 20
455.223114
 30
0.0
  0
VERTEX
  5
2D3
100
AcDbEntity
  8
0
100
AcDbVertex
100
AcDb2dVertex
 10
7693.116211
 20
454.548737
 30
0.0
  0
VERTEX
  5
2D4
100
AcDbEntity
  8
0
100
AcDbVertex
100
AcDb2dVertex
 10
7693.230957
 20
453.867218
 30
0.0
  0
VERTEX
  5
2D5
100
AcDbEntity
  8
0
100
AcDbVertex
100
AcDb2dVertex
 10
7693.347168
 20
452.601959
 30
0.0
  0
VERTEX
  5
2D6
100
AcDbEntity
  8
0
100
AcDbVertex
100
AcDb2dVertex
 10
7693.346191
 20
451.330658
 30
0.0
  0
VERTEX
  5
2D7
100
AcDbEntity
  8
0
100
AcDbVertex
100
AcDb2dVertex
 10
7693.256348
 20
450.230743
 30
0.0
  0
VERTEX
  5
2D8
100
AcDbEntity
  8
0
100
AcDbVertex
100
AcDb2dVertex
 10
7693.087891
 20
449.139832
 30
0.0
  0
VERTEX
  5
2D9
100
AcDbEntity
  8
0
100
AcDbVertex
100
AcDb2dVertex
 10
7692.747559
 20
447.689056
 30
0.0
  0
VERTEX
  5
2DA
100
AcDbEntity
  8
0
100
AcDbVertex
100
AcDb2dVertex
 10
7692.291016
 20
446.271637
 30
0.0
  0
SEQEND
  5
2DB
100
AcDbEntity
  8
0
  0
POLYLINE
  5
2DC
100
AcDbEntity
  8
0
 62
     7
100
AcDb2dPolyline
 66
     1
 10
0.0
 20
0.0
 30
0.0
 71
    39
  0
VERTEX
  5
2DD
100
AcDbEntity
  8
0
100
AcDbVertex
100
AcDb2dVertex
 10
7645.166016
 20
446.350372
 30
0.0
  0
VERTEX
  5
2DE
100
AcDbEntity
  8
0
100
AcDbVertex
100
AcDb2dVertex
 10
7645.668457
 20
447.533081
 30
0.0
  0
VERTEX
  5
2DF
100
AcDbEntity
  8
0
100
AcDbVertex
100
AcDb2dVertex
 10
7646.303223
 20
448.649078
 30
0.0
  0
VERTEX
  5
2E0
100
AcDbEntity
  8
0
100
AcDbVertex
100
AcDb2dVertex
 10
7647.247559
 20
449.922028
 30
0.0
  0
VERTEX
  5
2E1
100
AcDbEntity
  8
0
100
AcDbVertex
100
AcDb2dVertex
 10
7648.347168
 20
451.065369
 30
0.0
  0
VERTEX
  5
2E2
100
AcDbEntity
  8
0
100
AcDbVertex
100
AcDb2dVertex
 10
7649.796875
 20
452.221863
 30
0.0
  0
VERTEX
  5
2E3
100
AcDbEntity
  8
0
100
AcDbVertex
100
AcDb2dVertex
 10
7651.381836
 20
453.182953
 30
0.0
  0
VERTEX
  5
2E4
100
AcDbEntity
  8
0
100
AcDbVertex
100
AcDb2dVertex
 10
7652.494629
 20
453.716522
 30
0.0
  0
VERTEX
  5
2E5
100
AcDbEntity
  8
0
100
AcDbVertex
100
AcDb2dVertex
 10
7653.64209
 20
454.167175
 30
0.0
  0
VERTEX
  5
2E6
100
AcDbEntity
  8
0
100
AcDbVertex
100
AcDb2dVertex
 10
7654.416992
 20
454.420776
 30
0.0
  0
VERTEX
  5
2E7
100
AcDbEntity
  8
0
100
AcDbVertex
100
AcDb2dVertex
 10
7655.203125
 20
454.639923
 30
0.0
  0
VERTEX
  5
2E8
100
AcDbEntity
  8
0
100
AcDbVertex
100
AcDb2dVertex
 10
7656.279297
 20
454.882385
 30
0.0
  0
VERTEX
  5
2E9
100
AcDbEntity
  8
0
100
AcDbVertex
100
AcDb2dVertex
 10
7657.366211
 20
455.062897
 30
0.0
  0
VERTEX
  5
2EA
100
AcDbEntity
  8
0
100
AcDbVertex
100
AcDb2dVertex
 10
7658.075684
 20
455.146423
 30
0.0
  0
VERTEX
  5
2EB
100
AcDbEntity
  8
0
100
AcDbVertex
100
AcDb2dVertex
 10
7658.787109
 20
455.203888
 30
0.0
  0
VERTEX
  5
2EC
100
AcDbEntity
  8
0
100
AcDbVertex
100
AcDb2dVertex
 10
7659.361816
 20
455.230988
 30
0.0
  0
VERTEX
  5
2ED
100
AcDbEntity
  8
0
100
AcDbVertex
100
AcDb2dVertex
 10
7659.937012
 20
455.239807
 30
0.0
  0
VERTEX
  5
2EE
100
AcDbEntity
  8
0
100
AcDbVertex
100
AcDb2dVertex
 10
7660.544922
 20
455.22699
 30
0.0
  0
VERTEX
  5
2EF
100
AcDbEntity
  8
0
100
AcDbVertex
100
AcDb2dVertex
 10
7661.151855
 20
455.190002
 30
0.0
  0
VERTEX
  5
2F0
100
AcDbEntity
  8
0
100
AcDbVertex
100
AcDb2dVertex
 10
7661.99707
 20
455.095337
 30
0.0
  0
VERTEX
  5
2F1
100
AcDbEntity
  8
0
100
AcDbVertex
100
AcDb2dVertex
 10
7662.835938
 20
454.949371
 30
0.0
  0
VERTEX
  5
2F2
100
AcDbEntity
  8
0
100
AcDbVertex
100
AcDb2dVertex
 10
7663.855469
 20
454.697235
 30
0.0
  0
VERTEX
  5
2F3
100
AcDbEntity
  8
0
100
AcDbVertex
100
AcDb2dVertex
 10
7664.850098
 20
454.360687
 30
0.0
  0
VERTEX
  5
2F4
100
AcDbEntity
  8
0
100
AcDbVertex
100
AcDb2dVertex
 10
7665.304688
 20
454.171906
 30
0.0
  0
VERTEX
  5
2F5
100
AcDbEntity
  8
0
100
AcDbVertex
100
AcDb2dVertex
 10
7665.750977
 20
453.962433
 30
0.0
  0
VERTEX
  5
2F6
100
AcDbEntity
  8
0
100
AcDbVertex
100
AcDb2dVertex
 10
7666.630859
 20
453.4646
 30
0.0
  0
VERTEX
  5
2F7
100
AcDbEntity
  8
0
100
AcDbVertex
100
AcDb2dVertex
 10
7667.446777
 20
452.867859
 30
0.0
  0
VERTEX
  5
2F8
100
AcDbEntity
  8
0
100
AcDbVertex
100
AcDb2dVertex
 10
7668.074219
 20
452.275696
 30
0.0
  0
VERTEX
  5
2F9
100
AcDbEntity
  8
0
100
AcDbVertex
100
AcDb2dVertex
 10
7668.618652
 20
451.607178
 30
0.0
  0
VERTEX
  5
2FA
100
AcDbEntity
  8
0
100
AcDbVertex
100
AcDb2dVertex
 10
7669.054199
 20
450.880585
 30
0.0
  0
VERTEX
  5
2FB
100
AcDbEntity
  8
0
100
AcDbVertex
100
AcDb2dVertex
 10
7669.375
 20
450.097809
 30
0.0
  0
VERTEX
  5
2FC
100
AcDbEntity
  8
0
100
AcDbVertex
100
AcDb2dVertex
 10
7669.51123
 20
449.588776
 30
0.0
  0
VERTEX
  5
2FD
100
AcDbEntity
  8
0
100
AcDbVertex
100
AcDb2dVertex
 10
7669.596191
 20
449.069336
 30
0.0
  0
VERTEX
  5
2FE
100
AcDbEntity
  8
0
100
AcDbVertex
100
AcDb2dVertex
 10
7669.629395
 20
448.631714
 30
0.0
  0
VERTEX
  5
2FF
100
AcDbEntity
  8
0
100
AcDbVertex
100
AcDb2dVertex
 10
7669.629395
 20
448.192993
 30
0.0
  0
VERTEX
  5
300
100
AcDbEntity
  8
0
100
AcDbVertex
100
AcDb2dVertex
 10
7669.591797
 20
447.687805
 30
0.0
  0
VERTEX
  5
301
100
AcDbEntity
  8
0
100
AcDbVertex
100
AcDb2dVertex
 10
7669.516113
 20
447.186615
 30
0.0
  0
VERTEX
  5
302
100
AcDbEntity
  8
0
100
AcDbVertex
100
AcDb2dVertex
 10
7669.364258
 20
446.536804
 30
0.0
  0
VERTEX
  5
303
100
AcDbEntity
  8
0
100
AcDbVertex
100
AcDb2dVertex
 10
7669.159668
 20
445.902496
 30
0.0
  0
SEQEND
  5
304
100
AcDbEntity
  8
0
  0
POLYLINE
  5
305
100
AcDbEntity
  8
0
 62
     7
100
AcDb2dPolyline
 66
     1
 10
0.0
 20
0.0
 30
0.0
 71
    80
  0
VERTEX
  5
306
100
AcDbEntity
  8
0
100
AcDbVertex
100
AcDb2dVertex
 10
7771.215332
 20
424.451141
 30
0.0
  0
VERTEX
  5
307
100
AcDbEntity
  8
0
100
AcDbVertex
100
AcDb2dVertex
 10
7763.682617
 20
422.483856
 30
0.0
  0
VERTEX
  5
308
100
AcDbEntity
  8
0
100
AcDbVertex
100
AcDb2dVertex
 10
7756.018066
 20
421.233307
 30
0.0
  0
VERTEX
  5
309
100
AcDbEntity
  8
0
100
AcDbVertex
100
AcDb2dVertex
 10
7753.65625
 20
420.973969
 30
0.0
  0
VERTEX
  5
30A
100
AcDbEntity
  8
0
100
AcDbVertex
100
AcDb2dVertex
 10
7751.288574
 20
420.765991
 30
0.0
  0
VERTEX
  5
30B
100
AcDbEntity
  8
0
100
AcDbVertex
100
AcDb2dVertex
 10
7747.436035
 20
420.53067
 30
0.0
  0
VERTEX
  5
30C
100
AcDbEntity
  8
0
100
AcDbVertex
100
AcDb2dVertex
 10
7743.578125
 20
420.420471
 30
0.0
  0
VERTEX
  5
30D
100
AcDbEntity
  8
0
100
AcDbVertex
100
AcDb2dVertex
 10
7740.416992
 20
420.423218
 30
0.0
  0
VERTEX
  5
30E
100
AcDbEntity
  8
0
100
AcDbVertex
100
AcDb2dVertex
 10
7737.256836
 20
420.511627
 30
0.0
  0
VERTEX
  5
30F
100
AcDbEntity
  8
0
100
AcDbVertex
100
AcDb2dVertex
 10
7734.289551
 20
420.677002
 30
0.0
  0
VERTEX
  5
310
100
AcDbEntity
  8
0
100
AcDbVertex
100
AcDb2dVertex
 10
7731.329102
 20
420.934601
 30
0.0
  0
VERTEX
  5
311
100
AcDbEntity
  8
0
100
AcDbVertex
100
AcDb2dVertex
 10
7726.208496
 20
421.642303
 30
0.0
  0
VERTEX
  5
312
100
AcDbEntity
  8
0
100
AcDbVertex
100
AcDb2dVertex
 10
7721.154785
 20
422.723206
 30
0.0
  0
VERTEX
  5
313
100
AcDbEntity
  8
0
100
AcDbVertex
100
AcDb2dVertex
 10
7718.256836
 20
423.546265
 30
0.0
  0
VERTEX
  5
314
100
AcDbEntity
  8
0
100
AcDbVertex
100
AcDb2dVertex
 10
7715.40918
 20
424.528442
 30
0.0
  0
VERTEX
  5
315
100
AcDbEntity
  8
0
100
AcDbVertex
100
AcDb2dVertex
 10
7712.396973
 20
425.792236
 30
0.0
  0
VERTEX
  5
316
100
AcDbEntity
  8
0
100
AcDbVertex
100
AcDb2dVertex
 10
7709.491211
 20
427.284882
 30
0.0
  0
VERTEX
  5
317
100
AcDbEntity
  8
0
100
AcDbVertex
100
AcDb2dVertex
 10
7706.861816
 20
428.937988
 30
0.0
  0
VERTEX
  5
318
100
AcDbEntity
  8
0
100
AcDbVertex
100
AcDb2dVertex
 10
7704.410156
 20
430.845367
 30
0.0
  0
VERTEX
  5
319
100
AcDbEntity
  8
0
100
AcDbVertex
100
AcDb2dVertex
 10
7701.942871
 20
433.320435
 30
0.0
  0
VERTEX
  5
31A
100
AcDbEntity
  8
0
100
AcDbVertex
100
AcDb2dVertex
 10
7699.895996
 20
436.158905
 30
0.0
  0
VERTEX
  5
31B
100
AcDbEntity
  8
0
100
AcDbVertex
100
AcDb2dVertex
 10
7698.703125
 20
438.584717
 30
0.0
  0
VERTEX
  5
31C
100
AcDbEntity
  8
0
100
AcDbVertex
100
AcDb2dVertex
 10
7697.987793
 20
441.171082
 30
0.0
  0
VERTEX
  5
31D
100
AcDbEntity
  8
0
100
AcDbVertex
100
AcDb2dVertex
 10
7697.916016
 20
444.476105
 30
0.0
  0
VERTEX
  5
31E
100
AcDbEntity
  8
0
100
AcDbVertex
100
AcDb2dVertex
 10
7698.749512
 20
448.118256
 30
0.0
  0
VERTEX
  5
31F
100
AcDbEntity
  8
0
100
AcDbVertex
100
AcDb2dVertex
 10
7699.450195
 20
449.843323
 30
0.0
  0
VERTEX
  5
320
100
AcDbEntity
  8
0
100
AcDbVertex
100
AcDb2dVertex
 10
7701.644531
 20
453.502686
 30
0.0
  0
VERTEX
  5
321
100
AcDbEntity
  8
0
100
AcDbVertex
100
AcDb2dVertex
 10
7704.465332
 20
456.671692
 30
0.0
  0
VERTEX
  5
322
100
AcDbEntity
  8
0
100
AcDbVertex
100
AcDb2dVertex
 10
7707.227539
 20
459.000793
 30
0.0
  0
VERTEX
  5
323
100
AcDbEntity
  8
0
100
AcDbVertex
100
AcDb2dVertex
 10
7710.231934
 20
461.010712
 30
0.0
  0
VERTEX
  5
324
100
AcDbEntity
  8
0
100
AcDbVertex
100
AcDb2dVertex
 10
7713.964355
 20
462.987701
 30
0.0
  0
VERTEX
  5
325
100
AcDbEntity
  8
0
100
AcDbVertex
100
AcDb2dVertex
 10
7717.865234
 20
464.60675
 30
0.0
  0
VERTEX
  5
326
100
AcDbEntity
  8
0
100
AcDbVertex
100
AcDb2dVertex
 10
7720.862793
 20
465.612366
 30
0.0
  0
VERTEX
  5
327
100
AcDbEntity
  8
0
100
AcDbVertex
100
AcDb2dVertex
 10
7723.908691
 20
466.456848
 30
0.0
  0
VERTEX
  5
328
100
AcDbEntity
  8
0
100
AcDbVertex
100
AcDb2dVertex
 10
7728.38623
 20
467.417419
 30
0.0
  0
VERTEX
  5
329
100
AcDbEntity
  8
0
100
AcDbVertex
100
AcDb2dVertex
 10
7732.919434
 20
468.087402
 30
0.0
  0
VERTEX
  5
32A
100
AcDbEntity
  8
0
100
AcDbVertex
100
AcDb2dVertex
 10
7737.291992
 20
468.473389
 30
0.0
  0
VERTEX
  5
32B
100
AcDbEntity
  8
0
100
AcDbVertex
100
AcDb2dVertex
 10
7741.677246
 20
468.615997
 30
0.0
  0
VERTEX
  5
32C
100
AcDbEntity
  8
0
100
AcDbVertex
100
AcDb2dVertex
 10
7743.462891
 20
468.604858
 30
0.0
  0
VERTEX
  5
32D
100
AcDbEntity
  8
0
100
AcDbVertex
100
AcDb2dVertex
 10
7745.248047
 20
468.550995
 30
0.0
  0
VERTEX
  5
32E
100
AcDbEntity
  8
0
100
AcDbVertex
100
AcDb2dVertex
 10
7751.025391
 20
468.067047
 30
0.0
  0
VERTEX
  5
32F
100
AcDbEntity
  8
0
100
AcDbVertex
100
AcDb2dVertex
 10
7756.745117
 20
467.116943
 30
0.0
  0
VERTEX
  5
330
100
AcDbEntity
  8
0
100
AcDbVertex
100
AcDb2dVertex
 10
7759.305176
 20
466.535736
 30
0.0
  0
VERTEX
  5
331
100
AcDbEntity
  8
0
100
AcDbVertex
100
AcDb2dVertex
 10
7761.842285
 20
465.859009
 30
0.0
  0
VERTEX
  5
332
100
AcDbEntity
  8
0
100
AcDbVertex
100
AcDb2dVertex
 10
7765.15332
 20
464.803192
 30
0.0
  0
VERTEX
  5
333
100
AcDbEntity
  8
0
100
AcDbVertex
100
AcDb2dVertex
 10
7768.378418
 20
463.516724
 30
0.0
  0
VERTEX
  5
334
100
AcDbEntity
  8
0
100
AcDbVertex
100
AcDb2dVertex
 10
7770.644531
 20
462.408752
 30
0.0
  0
VERTEX
  5
335
100
AcDbEntity
  8
0
100
AcDbVertex
100
AcDb2dVertex
 10
7772.833984
 20
461.152985
 30
0.0
  0
VERTEX
  5
336
100
AcDbEntity
  8
0
100
AcDbVertex
100
AcDb2dVertex
 10
7774.567383
 20
460.011169
 30
0.0
  0
VERTEX
  5
337
100
AcDbEntity
  8
0
100
AcDbVertex
100
AcDb2dVertex
 10
7776.219238
 20
458.758881
 30
0.0
  0
VERTEX
  5
338
100
AcDbEntity
  8
0
100
AcDbVertex
100
AcDb2dVertex
 10
7777.962891
 20
457.163696
 30
0.0
  0
VERTEX
  5
339
100
AcDbEntity
  8
0
100
AcDbVertex
100
AcDb2dVertex
 10
7779.461914
 20
455.308838
 30
0.0
  0
VERTEX
  5
33A
100
AcDbEntity
  8
0
100
AcDbVertex
100
AcDb2dVertex
 10
7780.447754
 20
453.431976
 30
0.0
  0
VERTEX
  5
33B
100
AcDbEntity
  8
0
100
AcDbVertex
100
AcDb2dVertex
 10
7780.852051
 20
451.413605
 30
0.0
  0
VERTEX
  5
33C
100
AcDbEntity
  8
0
100
AcDbVertex
100
AcDb2dVertex
 10
7780.41748
 20
449.295654
 30
0.0
  0
VERTEX
  5
33D
100
AcDbEntity
  8
0
100
AcDbVertex
100
AcDb2dVertex
 10
7779.083008
 20
447.104218
 30
0.0
  0
VERTEX
  5
33E
100
AcDbEntity
  8
0
100
AcDbVertex
100
AcDb2dVertex
 10
7778.870605
 20
446.857574
 30
0.0
  0
VERTEX
  5
33F
100
AcDbEntity
  8
0
100
AcDbVertex
100
AcDb2dVertex
 10
7776.593262
 20
444.953644
 30
0.0
  0
VERTEX
  5
340
100
AcDbEntity
  8
0
100
AcDbVertex
100
AcDb2dVertex
 10
7773.42041
 20
443.375488
 30
0.0
  0
VERTEX
  5
341
100
AcDbEntity
  8
0
100
AcDbVertex
100
AcDb2dVertex
 10
7772.884766
 20
443.164185
 30
0.0
  0
VERTEX
  5
342
100
AcDbEntity
  8
0
100
AcDbVertex
100
AcDb2dVertex
 10
7767.586914
 20
441.468628
 30
0.0
  0
VERTEX
  5
343
100
AcDbEntity
  8
0
100
AcDbVertex
100
AcDb2dVertex
 10
7762.175293
 20
440.297485
 30
0.0
  0
VERTEX
  5
344
100
AcDbEntity
  8
0
100
AcDbVertex
100
AcDb2dVertex
 10
7759.400391
 20
439.847961
 30
0.0
  0
VERTEX
  5
345
100
AcDbEntity
  8
0
100
AcDbVertex
100
AcDb2dVertex
 10
7756.613281
 20
439.470917
 30
0.0
  0
VERTEX
  5
346
100
AcDbEntity
  8
0
100
AcDbVertex
100
AcDb2dVertex
 10
7753.524414
 20
439.124878
 30
0.0
  0
VERTEX
  5
347
100
AcDbEntity
  8
0
100
AcDbVertex
100
AcDb2dVertex
 10
7750.428711
 20
438.858459
 30
0.0
  0
VERTEX
  5
348
100
AcDbEntity
  8
0
100
AcDbVertex
100
AcDb2dVertex
 10
7747.555176
 20
438.69165
 30
0.0
  0
VERTEX
  5
349
100
AcDbEntity
  8
0
100
AcDbVertex
100
AcDb2dVertex
 10
7744.677734
 20
438.608337
 30
0.0
  0
VERTEX
  5
34A
100
AcDbEntity
  8
0
100
AcDbVertex
100
AcDb2dVertex
 10
7741.590332
 20
438.619171
 30
0.0
  0
VERTEX
  5
34B
100
AcDbEntity
  8
0
100
AcDbVertex
100
AcDb2dVertex
 10
7738.505371
 20
438.743835
 30
0.0
  0
VERTEX
  5
34C
100
AcDbEntity
  8
0
100
AcDbVertex
100
AcDb2dVertex
 10
7735.956055
 20
438.94101
 30
0.0
  0
VERTEX
  5
34D
100
AcDbEntity
  8
0
100
AcDbVertex
100
AcDb2dVertex
 10
7733.415527
 20
439.230316
 30
0.0
  0
VERTEX
  5
34E
100
AcDbEntity
  8
0
100
AcDbVertex
100
AcDb2dVertex
 10
7730.90918
 20
439.615601
 30
0.0
  0
VERTEX
  5
34F
100
AcDbEntity
  8
0
100
AcDbVertex
100
AcDb2dVertex
 10
7728.421875
 20
440.109406
 30
0.0
  0
VERTEX
  5
350
100
AcDbEntity
  8
0
100
AcDbVertex
100
AcDb2dVertex
 10
7725.899414
 20
440.738953
 30
0.0
  0
VERTEX
  5
351
100
AcDbEntity
  8
0
100
AcDbVertex
100
AcDb2dVertex
 10
7723.415039
 20
441.502655
 30
0.0
  0
VERTEX
  5
352
100
AcDbEntity
  8
0
100
AcDbVertex
100
AcDb2dVertex
 10
7721.849121
 20
442.066467
 30
0.0
  0
VERTEX
  5
353
100
AcDbEntity
  8
0
100
AcDbVertex
100
AcDb2dVertex
 10
7720.307129
 20
442.691589
 30
0.0
  0
VERTEX
  5
354
100
AcDbEntity
  8
0
100
AcDbVertex
100
AcDb2dVertex
 10
7717.665039
 20
443.950439
 30
0.0
  0
VERTEX
  5
355
100
AcDbEntity
  8
0
100
AcDbVertex
100
AcDb2dVertex
 10
7715.130859
 20
445.42569
 30
0.0
  0
SEQEND
  5
356
100
AcDbEntity
  8
0
  0
POLYLINE
  5
357
100
AcDbEntity
  8
0
 62
     7
100
AcDb2dPolyline
 66
     1
 10
0.0
 20
0.0
 30
0.0
 71
    25
  0
VERTEX
  5
358
100
AcDbEntity
  8
0
100
AcDbVertex
100
AcDb2dVertex
 10
7715.130859
 20
445.42569
 30
0.0
  0
VERTEX
  5
359
100
AcDbEntity
  8
0
100
AcDbVertex
100
AcDb2dVertex
 10
7715.290527
 20
443.023712
 30
0.0
  0
VERTEX
  5
35A
100
AcDbEntity
  8
0
100
AcDbVertex
100
AcDb2dVertex
 10
7716.217773
 20
440.891846
 30
0.0
  0
VERTEX
  5
35B
100
AcDbEntity
  8
0
100
AcDbVertex
100
AcDb2dVertex
 10
7716.681152
 20
440.224762
 30
0.0
  0
VERTEX
  5
35C
100
AcDbEntity
  8
0
100
AcDbVertex
100
AcDb2dVertex
 10
7717.20166
 20
439.600922
 30
0.0
  0
VERTEX
  5
35D
100
AcDbEntity
  8
0
100
AcDbVertex
100
AcDb2dVertex
 10
7718.712402
 20
438.226349
 30
0.0
  0
VERTEX
  5
35E
100
AcDbEntity
  8
0
100
AcDbVertex
100
AcDb2dVertex
 10
7720.425781
 20
437.096039
 30
0.0
  0
VERTEX
  5
35F
100
AcDbEntity
  8
0
100
AcDbVertex
100
AcDb2dVertex
 10
7723.129395
 20
435.789612
 30
0.0
  0
VERTEX
  5
360
100
AcDbEntity
  8
0
100
AcDbVertex
100
AcDb2dVertex
 10
7725.968262
 20
434.809814
 30
0.0
  0
VERTEX
  5
361
100
AcDbEntity
  8
0
100
AcDbVertex
100
AcDb2dVertex
 10
7728.452148
 20
434.161804
 30
0.0
  0
VERTEX
  5
362
100
AcDbEntity
  8
0
100
AcDbVertex
100
AcDb2dVertex
 10
7730.96875
 20
433.656952
 30
0.0
  0
VERTEX
  5
363
100
AcDbEntity
  8
0
100
AcDbVertex
100
AcDb2dVertex
 10
7733.329102
 20
433.297363
 30
0.0
  0
VERTEX
  5
364
100
AcDbEntity
  8
0
100
AcDbVertex
100
AcDb2dVertex
 10
7735.70166
 20
433.029449
 30
0.0
  0
VERTEX
  5
365
100
AcDbEntity
  8
0
100
AcDbVertex
100
AcDb2dVertex
 10
7741.263184
 20
432.706635
 30
0.0
  0
VERTEX
  5
366
100
AcDbEntity
  8
0
100
AcDbVertex
100
AcDb2dVertex
 10
7746.834961
 20
432.752991
 30
0.0
  0
VERTEX
  5
367
100
AcDbEntity
  8
0
100
AcDbVertex
100
AcDb2dVertex
 10
7749.881348
 20
432.914307
 30
0.0
  0
VERTEX
  5
368
100
AcDbEntity
  8
0
100
AcDbVertex
100
AcDb2dVertex
 10
7752.921387
 20
433.164948
 30
0.0
  0
VERTEX
  5
369
100
AcDbEntity
  8
0
100
AcDbVertex
100
AcDb2dVertex
 10
7757.037598
 20
433.644531
 30
0.0
  0
VERTEX
  5
36A
100
AcDbEntity
  8
0
100
AcDbVertex
100
AcDb2dVertex
 10
7761.132813
 20
434.281891
 30
0.0
  0
VERTEX
  5
36B
100
AcDbEntity
  8
0
100
AcDbVertex
100
AcDb2dVertex
 10
7764.520996
 20
434.932495
 30
0.0
  0
VERTEX
  5
36C
100
AcDbEntity
  8
0
100
AcDbVertex
100
AcDb2dVertex
 10
7767.885254
 20
435.69455
 30
0.0
  0
VERTEX
  5
36D
100
AcDbEntity
  8
0
100
AcDbVertex
100
AcDb2dVertex
 10
7771.192871
 20
436.563049
 30
0.0
  0
VERTEX
  5
36E
100
AcDbEntity
  8
0
100
AcDbVertex
100
AcDb2dVertex
 10
7774.467773
 20
437.548157
 30
0.0
  0
VERTEX
  5
36F
100
AcDbEntity
  8
0
100
AcDbVertex
100
AcDb2dVertex
 10
7775.32666
 20
437.828674
 30
0.0
  0
VERTEX
  5
370
100
AcDbEntity
  8
0
100
AcDbVertex
100
AcDb2dVertex
 10
7776.183105
 20
438.117615
 30
0.0
  0
SEQEND
  5
371
100
AcDbEntity
  8
0
  0
POLYLINE
  5
372
100
AcDbEntity
  8
0
 62
     7
100
AcDb2dPolyline
 66
     1
 10
0.0
 20
0.0
 30
0.0
 70
     1
 71
    49
  0
VERTEX
  5
373
100
AcDbEntity
  8
0
100
AcDbVertex
100
AcDb2dVertex
 10
7723.689941
 20
453.639069
 30
0.0
  0
VERTEX
  5
374
100
AcDbEntity
  8
0
100
AcDbVertex
100
AcDb2dVertex
 10
7724.544434
 20
453.971405
 30
0.0
  0
VERTEX
  5
375
100
AcDbEntity
  8
0
100
AcDbVertex
100
AcDb2dVertex
 10
7725.404297
 20
454.287262
 30
0.0
  0
VERTEX
  5
376
100
AcDbEntity
  8
0
100
AcDbVertex
100
AcDb2dVertex
 10
7726.991699
 20
454.822693
 30
0.0
  0
VERTEX
  5
377
100
AcDbEntity
  8
0
100
AcDbVertex
100
AcDb2dVertex
 10
7728.597168
 20
455.303314
 30
0.0
  0
VERTEX
  5
378
100
AcDbEntity
  8
0
100
AcDbVertex
100
AcDb2dVertex
 10
7730.469727
 20
455.789886
 30
0.0
  0
VERTEX
  5
379
100
AcDbEntity
  8
0
100
AcDbVertex
100
AcDb2dVertex
 10
7732.359863
 20
456.201813
 30
0.0
  0
VERTEX
  5
37A
100
AcDbEntity
  8
0
100
AcDbVertex
100
AcDb2dVertex
 10
7734.274414
 20
456.539124
 30
0.0
  0
VERTEX
  5
37B
100
AcDbEntity
  8
0
100
AcDbVertex
100
AcDb2dVertex
 10
7736.201172
 20
456.79895
 30
0.0
  0
VERTEX
  5
37C
100
AcDbEntity
  8
0
100
AcDbVertex
100
AcDb2dVertex
 10
7738.443359
 20
457.001984
 30
0.0
  0
VERTEX
  5
37D
100
AcDbEntity
  8
0
100
AcDbVertex
100
AcDb2dVertex
 10
7740.691895
 20
457.094666
 30
0.0
  0
VERTEX
  5
37E
100
AcDbEntity
  8
0
100
AcDbVertex
100
AcDb2dVertex
 10
7743.087402
 20
457.069946
 30
0.0
  0
VERTEX
  5
37F
100
AcDbEntity
  8
0
100
AcDbVertex
100
AcDb2dVertex
 10
7745.477539
 20
456.934448
 30
0.0
  0
VERTEX
  5
380
100
AcDbEntity
  8
0
100
AcDbVertex
100
AcDb2dVertex
 10
7747.267578
 20
456.771851
 30
0.0
  0
VERTEX
  5
381
100
AcDbEntity
  8
0
100
AcDbVertex
100
AcDb2dVertex
 10
7749.057617
 20
456.562744
 30
0.0
  0
VERTEX
  5
382
100
AcDbEntity
  8
0
100
AcDbVertex
100
AcDb2dVertex
 10
7751.373535
 20
456.2117
 30
0.0
  0
VERTEX
  5
383
100
AcDbEntity
  8
0
100
AcDbVertex
100
AcDb2dVertex
 10
7753.638672
 20
455.693176
 30
0.0
  0
VERTEX
  5
384
100
AcDbEntity
  8
0
100
AcDbVertex
100
AcDb2dVertex
 10
7754.707031
 20
455.358826
 30
0.0
  0
VERTEX
  5
385
100
AcDbEntity
  8
0
100
AcDbVertex
100
AcDb2dVertex
 10
7755.786133
 20
454.98822
 30
0.0
  0
VERTEX
  5
386
100
AcDbEntity
  8
0
100
AcDbVertex
100
AcDb2dVertex
 10
7756.749512
 20
454.603699
 30
0.0
  0
VERTEX
  5
387
100
AcDbEntity
  8
0
100
AcDbVertex
100
AcDb2dVertex
 10
7757.177246
 20
454.332703
 30
0.0
  0
VERTEX
  5
388
100
AcDbEntity
  8
0
100
AcDbVertex
100
AcDb2dVertex
 10
7757.533691
 20
453.969391
 30
0.0
  0
VERTEX
  5
389
100
AcDbEntity
  8
0
100
AcDbVertex
100
AcDb2dVertex
 10
7757.777344
 20
453.534882
 30
0.0
  0
VERTEX
  5
38A
100
AcDbEntity
  8
0
100
AcDbVertex
100
AcDb2dVertex
 10
7757.918945
 20
453.046356
 30
0.0
  0
VERTEX
  5
38B
100
AcDbEntity
  8
0
100
AcDbVertex
100
AcDb2dVertex
 10
7757.942871
 20
452.555084
 30
0.0
  0
VERTEX
  5
38C
100
AcDbEntity
  8
0
100
AcDbVertex
100
AcDb2dVertex
 10
7757.832031
 20
452.113068
 30
0.0
  0
VERTEX
  5
38D
100
AcDbEntity
  8
0
100
AcDbVertex
100
AcDb2dVertex
 10
7757.692871
 20
451.88623
 30
0.0
  0
VERTEX
  5
38E
100
AcDbEntity
  8
0
100
AcDbVertex
100
AcDb2dVertex
 10
7757.271484
 20
451.525146
 30
0.0
  0
VERTEX
  5
38F
100
AcDbEntity
  8
0
100
AcDbVertex
100
AcDb2dVertex
 10
7756.100098
 20
451.076508
 30
0.0
  0
VERTEX
  5
390
100
AcDbEntity
  8
0
100
AcDbVertex
100
AcDb2dVertex
 10
7755.783203
 20
450.994873
 30
0.0
  0
VERTEX
  5
391
100
AcDbEntity
  8
0
100
AcDbVertex
100
AcDb2dVertex
 10
7754.373535
 20
450.661255
 30
0.0
  0
VERTEX
  5
392
100
AcDbEntity
  8
0
100
AcDbVertex
100
AcDb2dVertex
 10
7753.033203
 20
450.408722
 30
0.0
  0
VERTEX
  5
393
100
AcDbEntity
  8
0
100
AcDbVertex
100
AcDb2dVertex
 10
7751.450195
 20
450.209351
 30
0.0
  0
VERTEX
  5
394
100
AcDbEntity
  8
0
100
AcDbVertex
100
AcDb2dVertex
 10
7749.831543
 20
450.081177
 30
0.0
  0
VERTEX
  5
395
100
AcDbEntity
  8
0
100
AcDbVertex
100
AcDb2dVertex
 10
7748.008789
 20
449.993256
 30
0.0
  0
VERTEX
  5
396
100
AcDbEntity
  8
0
100
AcDbVertex
100
AcDb2dVertex
 10
7746.193359
 20
449.956848
 30
0.0
  0
VERTEX
  5
397
100
AcDbEntity
  8
0
100
AcDbVertex
100
AcDb2dVertex
 10
7744.806152
 20
449.960663
 30
0.0
  0
VERTEX
  5
398
100
AcDbEntity
  8
0
100
AcDbVertex
100
AcDb2dVertex
 10
7743.417969
 20
449.989807
 30
0.0
  0
VERTEX
  5
399
100
AcDbEntity
  8
0
100
AcDbVertex
100
AcDb2dVertex
 10
7741.992188
 20
450.044189
 30
0.0
  0
VERTEX
  5
39A
100
AcDbEntity
  8
0
100
AcDbVertex
100
AcDb2dVertex
 10
7740.568848
 20
450.122711
 30
0.0
  0
VERTEX
  5
39B
100
AcDbEntity
  8
0
100
AcDbVertex
100
AcDb2dVertex
 10
7738.629395
 20
450.269196
 30
0.0
  0
VERTEX
  5
39C
100
AcDbEntity
  8
0
100
AcDbVertex
100
AcDb2dVertex
 10
7736.693359
 20
450.462585
 30
0.0
  0
VERTEX
  5
39D
100
AcDbEntity
  8
0
100
AcDbVertex
100
AcDb2dVertex
 10
7734.459961
 20
450.74823
 30
0.0
  0
VERTEX
  5
39E
100
AcDbEntity
  8
0
100
AcDbVertex
100
AcDb2dVertex
 10
7732.237793
 20
451.10672
 30
0.0
  0
VERTEX
  5
39F
100
AcDbEntity
  8
0
100
AcDbVertex
100
AcDb2dVertex
 10
7730.758789
 20
451.392761
 30
0.0
  0
VERTEX
  5
3A0
100
AcDbEntity
  8
0
100
AcDbVertex
100
AcDb2dVertex
 10
7729.288574
 20
451.723267
 30
0.0
  0
VERTEX
  5
3A1
100
AcDbEntity
  8
0
100
AcDbVertex
100
AcDb2dVertex
 10
7727.946289
 20
452.074097
 30
0.0
  0
VERTEX
  5
3A2
100
AcDbEntity
  8
0
100
AcDbVertex
100
AcDb2dVertex
 10
7726.620117
 20
452.477997
 30
0.0
  0
VERTEX
  5
3A3
100
AcDbEntity
  8
0
100
AcDbVertex
100
AcDb2dVertex
 10
7725.138184
 20
453.012482
 30
0.0
  0
SEQEND
  5
3A4
100
AcDbEntity
  8
0
  0
POLYLINE
  5
3A5
100
AcDbEntity
  8
0
 62
     7
100
AcDb2dPolyline
 66
     1
 10
0.0
 20
0.0
 30
0.0
 71
    87
  0
VERTEX
  5
3A6
100
AcDbEntity
  8
0
100
AcDbVertex
100
AcDb2dVertex
 10
7858.198242
 20
424.451141
 30
0.0
  0
VERTEX
  5
3A7
100
AcDbEntity
  8
0
100
AcDbVertex
100
AcDb2dVertex
 10
7854.17334
 20
423.284943
 30
0.0
  0
VERTEX
  5
3A8
100
AcDbEntity
  8
0
100
AcDbVertex
100
AcDb2dVertex
 10
7850.091797
 20
422.352783
 30
0.0
  0
VERTEX
  5
3A9
100
AcDbEntity
  8
0
100
AcDbVertex
100
AcDb2dVertex
 10
7844.947754
 20
421.482086
 30
0.0
  0
VERTEX
  5
3AA
100
AcDbEntity
  8
0
100
AcDbVertex
100
AcDb2dVertex
 10
7839.761719
 20
420.890472
 30
0.0
  0
VERTEX
  5
3AB
100
AcDbEntity
  8
0
100
AcDbVertex
100
AcDb2dVertex
 10
7836.059082
 20
420.615814
 30
0.0
  0
VERTEX
  5
3AC
100
AcDbEntity
  8
0
100
AcDbVertex
100
AcDb2dVertex
 10
7832.350098
 20
420.456512
 30
0.0
  0
VERTEX
  5
3AD
100
AcDbEntity
  8
0
100
AcDbVertex
100
AcDb2dVertex
 10
7827.592285
 20
420.419189
 30
0.0
  0
VERTEX
  5
3AE
100
AcDbEntity
  8
0
100
AcDbVertex
100
AcDb2dVertex
 10
7822.836914
 20
420.579376
 30
0.0
  0
VERTEX
  5
3AF
100
AcDbEntity
  8
0
100
AcDbVertex
100
AcDb2dVertex
 10
7818.799805
 20
420.886261
 30
0.0
  0
VERTEX
  5
3B0
100
AcDbEntity
  8
0
100
AcDbVertex
100
AcDb2dVertex
 10
7814.781738
 20
421.382477
 30
0.0
  0
VERTEX
  5
3B1
100
AcDbEntity
  8
0
100
AcDbVertex
100
AcDb2dVertex
 10
7811.442871
 20
421.968628
 30
0.0
  0
VERTEX
  5
3B2
100
AcDbEntity
  8
0
100
AcDbVertex
100
AcDb2dVertex
 10
7808.13916
 20
422.723206
 30
0.0
  0
VERTEX
  5
3B3
100
AcDbEntity
  8
0
100
AcDbVertex
100
AcDb2dVertex
 10
7804.476074
 20
423.792358
 30
0.0
  0
VERTEX
  5
3B4
100
AcDbEntity
  8
0
100
AcDbVertex
100
AcDb2dVertex
 10
7800.892578
 20
425.125732
 30
0.0
  0
VERTEX
  5
3B5
100
AcDbEntity
  8
0
100
AcDbVertex
100
AcDb2dVertex
 10
7795.90332
 20
427.609344
 30
0.0
  0
VERTEX
  5
3B6
100
AcDbEntity
  8
0
100
AcDbVertex
100
AcDb2dVertex
 10
7793.571289
 20
429.126221
 30
0.0
  0
VERTEX
  5
3B7
100
AcDbEntity
  8
0
100
AcDbVertex
100
AcDb2dVertex
 10
7791.393555
 20
430.845367
 30
0.0
  0
VERTEX
  5
3B8
100
AcDbEntity
  8
0
100
AcDbVertex
100
AcDb2dVertex
 10
7789.349121
 20
432.845093
 30
0.0
  0
VERTEX
  5
3B9
100
AcDbEntity
  8
0
100
AcDbVertex
100
AcDb2dVertex
 10
7787.562012
 20
435.087769
 30
0.0
  0
VERTEX
  5
3BA
100
AcDbEntity
  8
0
100
AcDbVertex
100
AcDb2dVertex
 10
7786.129395
 20
437.539917
 30
0.0
  0
VERTEX
  5
3BB
100
AcDbEntity
  8
0
100
AcDbVertex
100
AcDb2dVertex
 10
7785.18457
 20
440.19931
 30
0.0
  0
VERTEX
  5
3BC
100
AcDbEntity
  8
0
100
AcDbVertex
100
AcDb2dVertex
 10
7784.870605
 20
443.547241
 30
0.0
  0
VERTEX
  5
3BD
100
AcDbEntity
  8
0
100
AcDbVertex
100
AcDb2dVertex
 10
7785.450195
 20
447.231293
 30
0.0
  0
VERTEX
  5
3BE
100
AcDbEntity
  8
0
100
AcDbVertex
100
AcDb2dVertex
 10
7785.931152
 20
448.69342
 30
0.0
  0
VERTEX
  5
3BF
100
AcDbEntity
  8
0
100
AcDbVertex
100
AcDb2dVertex
 10
7787.594238
 20
452.006683
 30
0.0
  0
VERTEX
  5
3C0
100
AcDbEntity
  8
0
100
AcDbVertex
100
AcDb2dVertex
 10
7789.81543
 20
454.960571
 30
0.0
  0
VERTEX
  5
3C1
100
AcDbEntity
  8
0
100
AcDbVertex
100
AcDb2dVertex
 10
7792.342285
 20
457.482635
 30
0.0
  0
VERTEX
  5
3C2
100
AcDbEntity
  8
0
100
AcDbVertex
100
AcDb2dVertex
 10
7795.15332
 20
459.682465
 30
0.0
  0
VERTEX
  5
3C3
100
AcDbEntity
  8
0
100
AcDbVertex
100
AcDb2dVertex
 10
7797.666016
 20
461.278076
 30
0.0
  0
VERTEX
  5
3C4
100
AcDbEntity
  8
0
100
AcDbVertex
100
AcDb2dVertex
 10
7800.294922
 20
462.674255
 30
0.0
  0
VERTEX
  5
3C5
100
AcDbEntity
  8
0
100
AcDbVertex
100
AcDb2dVertex
 10
7803.711914
 20
464.173706
 30
0.0
  0
VERTEX
  5
3C6
100
AcDbEntity
  8
0
100
AcDbVertex
100
AcDb2dVertex
 10
7807.228516
 20
465.420258
 30
0.0
  0
VERTEX
  5
3C7
100
AcDbEntity
  8
0
100
AcDbVertex
100
AcDb2dVertex
 10
7810.152832
 20
466.266968
 30
0.0
  0
VERTEX
  5
3C8
100
AcDbEntity
  8
0
100
AcDbVertex
100
AcDb2dVertex
 10
7813.112793
 20
466.97171
 30
0.0
  0
VERTEX
  5
3C9
100
AcDbEntity
  8
0
100
AcDbVertex
100
AcDb2dVertex
 10
7816.494141
 20
467.609497
 30
0.0
  0
VERTEX
  5
3CA
100
AcDbEntity
  8
0
100
AcDbVertex
100
AcDb2dVertex
 10
7819.902344
 20
468.087402
 30
0.0
  0
VERTEX
  5
3CB
100
AcDbEntity
  8
0
100
AcDbVertex
100
AcDb2dVertex
 10
7824.273926
 20
468.475189
 30
0.0
  0
VERTEX
  5
3CC
100
AcDbEntity
  8
0
100
AcDbVertex
100
AcDb2dVertex
 10
7828.660645
 20
468.615997
 30
0.0
  0
VERTEX
  5
3CD
100
AcDbEntity
  8
0
100
AcDbVertex
100
AcDb2dVertex
 10
7833.276367
 20
468.494232
 30
0.0
  0
VERTEX
  5
3CE
100
AcDbEntity
  8
0
100
AcDbVertex
100
AcDb2dVertex
 10
7837.875
 20
468.083008
 30
0.0
  0
VERTEX
  5
3CF
100
AcDbEntity
  8
0
100
AcDbVertex
100
AcDb2dVertex
 10
7841.393066
 20
467.562073
 30
0.0
  0
VERTEX
  5
3D0
100
AcDbEntity
  8
0
100
AcDbVertex
100
AcDb2dVertex
 10
7844.881836
 20
466.868103
 30
0.0
  0
VERTEX
  5
3D1
100
AcDbEntity
  8
0
100
AcDbVertex
100
AcDb2dVertex
 10
7848.428711
 20
465.975281
 30
0.0
  0
VERTEX
  5
3D2
100
AcDbEntity
  8
0
100
AcDbVertex
100
AcDb2dVertex
 10
7851.91748
 20
464.874817
 30
0.0
  0
VERTEX
  5
3D3
100
AcDbEntity
  8
0
100
AcDbVertex
100
AcDb2dVertex
 10
7854.776855
 20
463.766449
 30
0.0
  0
VERTEX
  5
3D4
100
AcDbEntity
  8
0
100
AcDbVertex
100
AcDb2dVertex
 10
7857.546387
 20
462.454529
 30
0.0
  0
VERTEX
  5
3D5
100
AcDbEntity
  8
0
100
AcDbVertex
100
AcDb2dVertex
 10
7858.912598
 20
461.69812
 30
0.0
  0
VERTEX
  5
3D6
100
AcDbEntity
  8
0
100
AcDbVertex
100
AcDb2dVertex
 10
7860.245605
 20
460.884949
 30
0.0
  0
VERTEX
  5
3D7
100
AcDbEntity
  8
0
100
AcDbVertex
100
AcDb2dVertex
 10
7861.756348
 20
459.867065
 30
0.0
  0
VERTEX
  5
3D8
100
AcDbEntity
  8
0
100
AcDbVertex
100
AcDb2dVertex
 10
7863.202148
 20
458.758881
 30
0.0
  0
VERTEX
  5
3D9
100
AcDbEntity
  8
0
100
AcDbVertex
100
AcDb2dVertex
 10
7864.489746
 20
457.610107
 30
0.0
  0
VERTEX
  5
3DA
100
AcDbEntity
  8
0
100
AcDbVertex
100
AcDb2dVertex
 10
7865.663574
 20
456.348297
 30
0.0
  0
VERTEX
  5
3DB
100
AcDbEntity
  8
0
100
AcDbVertex
100
AcDb2dVertex
 10
7866.401367
 20
455.378418
 30
0.0
  0
VERTEX
  5
3DC
100
AcDbEntity
  8
0
100
AcDbVertex
100
AcDb2dVertex
 10
7867.02832
 20
454.330109
 30
0.0
  0
VERTEX
  5
3DD
100
AcDbEntity
  8
0
100
AcDbVertex
100
AcDb2dVertex
 10
7867.596191
 20
452.912537
 30
0.0
  0
VERTEX
  5
3DE
100
AcDbEntity
  8
0
100
AcDbVertex
100
AcDb2dVertex
 10
7867.835938
 20
451.413605
 30
0.0
  0
VERTEX
  5
3DF
100
AcDbEntity
  8
0
100
AcDbVertex
100
AcDb2dVertex
 10
7867.774902
 20
450.444061
 30
0.0
  0
VERTEX
  5
3E0
100
AcDbEntity
  8
0
100
AcDbVertex
100
AcDb2dVertex
 10
7867.54541
 20
449.500549
 30
0.0
  0
VERTEX
  5
3E1
100
AcDbEntity
  8
0
100
AcDbVertex
100
AcDb2dVertex
 10
7866.635254
 20
447.784302
 30
0.0
  0
VERTEX
  5
3E2
100
AcDbEntity
  8
0
100
AcDbVertex
100
AcDb2dVertex
 10
7865.307617
 20
446.335175
 30
0.0
  0
VERTEX
  5
3E3
100
AcDbEntity
  8
0
100
AcDbVertex
100
AcDb2dVertex
 10
7864.285645
 20
445.517426
 30
0.0
  0
VERTEX
  5
3E4
100
AcDbEntity
  8
0
100
AcDbVertex
100
AcDb2dVertex
 10
7863.196777
 20
444.803497
 30
0.0
  0
VERTEX
  5
3E5
100
AcDbEntity
  8
0
100
AcDbVertex
100
AcDb2dVertex
 10
7861.171875
 20
443.731781
 30
0.0
  0
VERTEX
  5
3E6
100
AcDbEntity
  8
0
100
AcDbVertex
100
AcDb2dVertex
 10
7859.052246
 20
442.846313
 30
0.0
  0
VERTEX
  5
3E7
100
AcDbEntity
  8
0
100
AcDbVertex
100
AcDb2dVertex
 10
7857.054688
 20
442.158752
 30
0.0
  0
VERTEX
  5
3E8
100
AcDbEntity
  8
0
100
AcDbVertex
100
AcDb2dVertex
 10
7855.027832
 20
441.570587
 30
0.0
  0
VERTEX
  5
3E9
100
AcDbEntity
  8
0
100
AcDbVertex
100
AcDb2dVertex
 10
7853.487305
 20
441.181885
 30
0.0
  0
VERTEX
  5
3EA
100
AcDbEntity
  8
0
100
AcDbVertex
100
AcDb2dVertex
 10
7851.937012
 20
440.833832
 30
0.0
  0
VERTEX
  5
3EB
100
AcDbEntity
  8
0
100
AcDbVertex
100
AcDb2dVertex
 10
7849.223145
 20
440.311554
 30
0.0
  0
VERTEX
  5
3EC
100
AcDbEntity
  8
0
100
AcDbVertex
100
AcDb2dVertex
 10
7846.495117
 20
439.871765
 30
0.0
  0
VERTEX
  5
3ED
100
AcDbEntity
  8
0
100
AcDbVertex
100
AcDb2dVertex
 10
7842.586426
 20
439.348999
 30
0.0
  0
VERTEX
  5
3EE
100
AcDbEntity
  8
0
100
AcDbVertex
100
AcDb2dVertex
 10
7838.663086
 20
438.953857
 30
0.0
  0
VERTEX
  5
3EF
100
AcDbEntity
  8
0
100
AcDbVertex
100
AcDb2dVertex
 10
7836.107422
 20
438.772217
 30
0.0
  0
VERTEX
  5
3F0
100
AcDbEntity
  8
0
100
AcDbVertex
100
AcDb2dVertex
 10
7833.546875
 20
438.6539
 30
0.0
  0
VERTEX
  5
3F1
100
AcDbEntity
  8
0
100
AcDbVertex
100
AcDb2dVertex
 10
7828.942871
 20
438.612701
 30
0.0
  0
VERTEX
  5
3F2
100
AcDbEntity
  8
0
100
AcDbVertex
100
AcDb2dVertex
 10
7824.344238
 20
438.821259
 30
0.0
  0
VERTEX
  5
3F3
100
AcDbEntity
  8
0
100
AcDbVertex
100
AcDb2dVertex
 10
7821.290039
 20
439.117157
 30
0.0
  0
VERTEX
  5
3F4
100
AcDbEntity
  8
0
100
AcDbVertex
100
AcDb2dVertex
 10
7818.253418
 20
439.553864
 30
0.0
  0
VERTEX
  5
3F5
100
AcDbEntity
  8
0
100
AcDbVertex
100
AcDb2dVertex
 10
7816.37793
 20
439.903076
 30
0.0
  0
VERTEX
  5
3F6
100
AcDbEntity
  8
0
100
AcDbVertex
100
AcDb2dVertex
 10
7814.51416
 20
440.316711
 30
0.0
  0
VERTEX
  5
3F7
100
AcDbEntity
  8
0
100
AcDbVertex
100
AcDb2dVertex
 10
7812.443848
 20
440.863464
 30
0.0
  0
VERTEX
  5
3F8
100
AcDbEntity
  8
0
100
AcDbVertex
100
AcDb2dVertex
 10
7810.399414
 20
441.502655
 30
0.0
  0
VERTEX
  5
3F9
100
AcDbEntity
  8
0
100
AcDbVertex
100
AcDb2dVertex
 10
7808.489746
 20
442.199951
 30
0.0
  0
VERTEX
  5
3FA
100
AcDbEntity
  8
0
100
AcDbVertex
100
AcDb2dVertex
 10
7806.616211
 20
442.990051
 30
0.0
  0
VERTEX
  5
3FB
100
AcDbEntity
  8
0
100
AcDbVertex
100
AcDb2dVertex
 10
7804.323242
 20
444.125092
 30
0.0
  0
VERTEX
  5
3FC
100
AcDbEntity
  8
0
100
AcDbVertex
100
AcDb2dVertex
 10
7802.115723
 20
445.42569
 30
0.0
  0
SEQEND
  5
3FD
100
AcDbEntity
  8
0
  0
POLYLINE
  5
3FE
100
AcDbEntity
  8
0
 62
     7
100
AcDb2dPolyline
 66
     1
 10
0.0
 20
0.0
 30
0.0
 71
    27
  0
VERTEX
  5
3FF
100
AcDbEntity
  8
0
100
AcDbVertex
100
AcDb2dVertex
 10
7802.115723
 20
445.42569
 30
0.0
  0
VERTEX
  5
400
100
AcDbEntity
  8
0
100
AcDbVertex
100
AcDb2dVertex
 10
7802.135742
 20
443.777191
 30
0.0
  0
VERTEX
  5
401
100
AcDbEntity
  8
0
100
AcDbVertex
100
AcDb2dVertex
 10
7802.54834
 20
442.203613
 30
0.0
  0
VERTEX
  5
402
100
AcDbEntity
  8
0
100
AcDbVertex
100
AcDb2dVertex
 10
7803.056152
 20
441.139557
 30
0.0
  0
VERTEX
  5
403
100
AcDbEntity
  8
0
100
AcDbVertex
100
AcDb2dVertex
 10
7803.712402
 20
440.159241
 30
0.0
  0
VERTEX
  5
404
100
AcDbEntity
  8
0
100
AcDbVertex
100
AcDb2dVertex
 10
7804.798828
 20
438.982574
 30
0.0
  0
VERTEX
  5
405
100
AcDbEntity
  8
0
100
AcDbVertex
100
AcDb2dVertex
 10
7806.045898
 20
437.97113
 30
0.0
  0
VERTEX
  5
406
100
AcDbEntity
  8
0
100
AcDbVertex
100
AcDb2dVertex
 10
7808.91748
 20
436.307953
 30
0.0
  0
VERTEX
  5
407
100
AcDbEntity
  8
0
100
AcDbVertex
100
AcDb2dVertex
 10
7812.02002
 20
435.10022
 30
0.0
  0
VERTEX
  5
408
100
AcDbEntity
  8
0
100
AcDbVertex
100
AcDb2dVertex
 10
7814.504395
 20
434.385193
 30
0.0
  0
VERTEX
  5
409
100
AcDbEntity
  8
0
100
AcDbVertex
100
AcDb2dVertex
 10
7817.024902
 20
433.827087
 30
0.0
  0
VERTEX
  5
40A
100
AcDbEntity
  8
0
100
AcDbVertex
100
AcDb2dVertex
 10
7819.433594
 20
433.41983
 30
0.0
  0
VERTEX
  5
40B
100
AcDbEntity
  8
0
100
AcDbVertex
100
AcDb2dVertex
 10
7821.858887
 20
433.113861
 30
0.0
  0
VERTEX
  5
40C
100
AcDbEntity
  8
0
100
AcDbVertex
100
AcDb2dVertex
 10
7823.866211
 20
432.928009
 30
0.0
  0
VERTEX
  5
40D
100
AcDbEntity
  8
0
100
AcDbVertex
100
AcDb2dVertex
 10
7825.878418
 20
432.797272
 30
0.0
  0
VERTEX
  5
40E
100
AcDbEntity
  8
0
100
AcDbVertex
100
AcDb2dVertex
 10
7829.001465
 20
432.694946
 30
0.0
  0
VERTEX
  5
40F
100
AcDbEntity
  8
0
100
AcDbVertex
100
AcDb2dVertex
 10
7832.12793
 20
432.70462
 30
0.0
  0
VERTEX
  5
410
100
AcDbEntity
  8
0
100
AcDbVertex
100
AcDb2dVertex
 10
7835.42334
 20
432.825653
 30
0.0
  0
VERTEX
  5
411
100
AcDbEntity
  8
0
100
AcDbVertex
100
AcDb2dVertex
 10
7838.712402
 20
433.054382
 30
0.0
  0
VERTEX
  5
412
100
AcDbEntity
  8
0
100
AcDbVertex
100
AcDb2dVertex
 10
7842.393555
 20
433.434692
 30
0.0
  0
VERTEX
  5
413
100
AcDbEntity
  8
0
100
AcDbVertex
100
AcDb2dVertex
 10
7846.05957
 20
433.941681
 30
0.0
  0
VERTEX
  5
414
100
AcDbEntity
  8
0
100
AcDbVertex
100
AcDb2dVertex
 10
7849.511719
 20
434.536224
 30
0.0
  0
VERTEX
  5
415
100
AcDbEntity
  8
0
100
AcDbVertex
100
AcDb2dVertex
 10
7852.942871
 20
435.243774
 30
0.0
  0
VERTEX
  5
416
100
AcDbEntity
  8
0
100
AcDbVertex
100
AcDb2dVertex
 10
7855.843262
 20
435.937347
 30
0.0
  0
VERTEX
  5
417
100
AcDbEntity
  8
0
100
AcDbVertex
100
AcDb2dVertex
 10
7858.720703
 20
436.717407
 30
0.0
  0
VERTEX
  5
418
100
AcDbEntity
  8
0
100
AcDbVertex
100
AcDb2dVertex
 10
7860.952148
 20
437.389404
 30
0.0
  0
VERTEX
  5
419
100
AcDbEntity
  8
0
100
AcDbVertex
100
AcDb2dVertex
 10
7863.166016
 20
438.117615
 30
0.0
  0
SEQEND
  5
41A
100
AcDbEntity
  8
0
  0
POLYLINE
  5
41B
100
AcDbEntity
  8
0
 62
     7
100
AcDb2dPolyline
 66
     1
 10
0.0
 20
0.0
 30
0.0
 70
     1
 71
    53
  0
VERTEX
  5
41C
100
AcDbEntity
  8
0
100
AcDbVertex
100
AcDb2dVertex
 10
7810.67334
 20
453.639069
 30
0.0
  0
VERTEX
  5
41D
100
AcDbEntity
  8
0
100
AcDbVertex
100
AcDb2dVertex
 10
7812.833008
 20
454.444
 30
0.0
  0
VERTEX
  5
41E
100
AcDbEntity
  8
0
100
AcDbVertex
100
AcDb2dVertex
 10
7815.027832
 20
455.144379
 30
0.0
  0
VERTEX
  5
41F
100
AcDbEntity
  8
0
100
AcDbVertex
100
AcDb2dVertex
 10
7815.604004
 20
455.30957
 30
0.0
  0
VERTEX
  5
420
100
AcDbEntity
  8
0
100
AcDbVertex
100
AcDb2dVertex
 10
7816.181641
 20
455.467773
 30
0.0
  0
VERTEX
  5
421
100
AcDbEntity
  8
0
100
AcDbVertex
100
AcDb2dVertex
 10
7818.127441
 20
455.945465
 30
0.0
  0
VERTEX
  5
422
100
AcDbEntity
  8
0
100
AcDbVertex
100
AcDb2dVertex
 10
7820.092285
 20
456.342804
 30
0.0
  0
VERTEX
  5
423
100
AcDbEntity
  8
0
100
AcDbVertex
100
AcDb2dVertex
 10
7821.634766
 20
456.595886
 30
0.0
  0
VERTEX
  5
424
100
AcDbEntity
  8
0
100
AcDbVertex
100
AcDb2dVertex
 10
7823.18457
 20
456.79895
 30
0.0
  0
VERTEX
  5
425
100
AcDbEntity
  8
0
100
AcDbVertex
100
AcDb2dVertex
 10
7825.42627
 20
457.002747
 30
0.0
  0
VERTEX
  5
426
100
AcDbEntity
  8
0
100
AcDbVertex
100
AcDb2dVertex
 10
7827.675293
 20
457.094666
 30
0.0
  0
VERTEX
  5
427
100
AcDbEntity
  8
0
100
AcDbVertex
100
AcDb2dVertex
 10
7829.738281
 20
457.078186
 30
0.0
  0
VERTEX
  5
428
100
AcDbEntity
  8
0
100
AcDbVertex
100
AcDb2dVertex
 10
7831.800293
 20
456.980011
 30
0.0
  0
VERTEX
  5
429
100
AcDbEntity
  8
0
100
AcDbVertex
100
AcDb2dVertex
 10
7833.641602
 20
456.835754
 30
0.0
  0
VERTEX
  5
42A
100
AcDbEntity
  8
0
100
AcDbVertex
100
AcDb2dVertex
 10
7835.477051
 20
456.635773
 30
0.0
  0
VERTEX
  5
42B
100
AcDbEntity
  8
0
100
AcDbVertex
100
AcDb2dVertex
 10
7836.978516
 20
456.426117
 30
0.0
  0
VERTEX
  5
42C
100
AcDbEntity
  8
0
100
AcDbVertex
100
AcDb2dVertex
 10
7838.476074
 20
456.172913
 30
0.0
  0
VERTEX
  5
42D
100
AcDbEntity
  8
0
100
AcDbVertex
100
AcDb2dVertex
 10
7840.952148
 20
455.617371
 30
0.0
  0
VERTEX
  5
42E
100
AcDbEntity
  8
0
100
AcDbVertex
100
AcDb2dVertex
 10
7843.319824
 20
454.742096
 30
0.0
  0
VERTEX
  5
42F
100
AcDbEntity
  8
0
100
AcDbVertex
100
AcDb2dVertex
 10
7843.946777
 20
454.402802
 30
0.0
  0
VERTEX
  5
430
100
AcDbEntity
  8
0
100
AcDbVertex
100
AcDb2dVertex
 10
7844.516602
 20
453.969391
 30
0.0
  0
VERTEX
  5
431
100
AcDbEntity
  8
0
100
AcDbVertex
100
AcDb2dVertex
 10
7844.839844
 20
453.600281
 30
0.0
  0
VERTEX
  5
432
100
AcDbEntity
  8
0
100
AcDbVertex
100
AcDb2dVertex
 10
7845.044922
 20
453.166321
 30
0.0
  0
VERTEX
  5
433
100
AcDbEntity
  8
0
100
AcDbVertex
100
AcDb2dVertex
 10
7845.081543
 20
452.926056
 30
0.0
  0
VERTEX
  5
434
100
AcDbEntity
  8
0
100
AcDbVertex
100
AcDb2dVertex
 10
7845.066895
 20
452.682526
 30
0.0
  0
VERTEX
  5
435
100
AcDbEntity
  8
0
100
AcDbVertex
100
AcDb2dVertex
 10
7844.974121
 20
452.383362
 30
0.0
  0
VERTEX
  5
436
100
AcDbEntity
  8
0
100
AcDbVertex
100
AcDb2dVertex
 10
7844.81543
 20
452.113068
 30
0.0
  0
VERTEX
  5
437
100
AcDbEntity
  8
0
100
AcDbVertex
100
AcDb2dVertex
 10
7844.52832
 20
451.808411
 30
0.0
  0
VERTEX
  5
438
100
AcDbEntity
  8
0
100
AcDbVertex
100
AcDb2dVertex
 10
7843.79541
 20
451.371155
 30
0.0
  0
VERTEX
  5
439
100
AcDbEntity
  8
0
100
AcDbVertex
100
AcDb2dVertex
 10
7843.390137
 20
451.209076
 30
0.0
  0
VERTEX
  5
43A
100
AcDbEntity
  8
0
100
AcDbVertex
100
AcDb2dVertex
 10
7842.187012
 20
450.833557
 30
0.0
  0
VERTEX
  5
43B
100
AcDbEntity
  8
0
100
AcDbVertex
100
AcDb2dVertex
 10
7840.976563
 20
450.567657
 30
0.0
  0
VERTEX
  5
43C
100
AcDbEntity
  8
0
100
AcDbVertex
100
AcDb2dVertex
 10
7840.092285
 20
450.420074
 30
0.0
  0
VERTEX
  5
43D
100
AcDbEntity
  8
0
100
AcDbVertex
100
AcDb2dVertex
 10
7839.200684
 20
450.299622
 30
0.0
  0
VERTEX
  5
43E
100
AcDbEntity
  8
0
100
AcDbVertex
100
AcDb2dVertex
 10
7837.681641
 20
450.144897
 30
0.0
  0
VERTEX
  5
43F
100
AcDbEntity
  8
0
100
AcDbVertex
100
AcDb2dVertex
 10
7836.159668
 20
450.042358
 30
0.0
  0
VERTEX
  5
440
100
AcDbEntity
  8
0
100
AcDbVertex
100
AcDb2dVertex
 10
7834.92041
 20
449.990173
 30
0.0
  0
VERTEX
  5
441
100
AcDbEntity
  8
0
100
AcDbVertex
100
AcDb2dVertex
 10
7833.679199
 20
449.962311
 30
0.0
  0
VERTEX
  5
442
100
AcDbEntity
  8
0
100
AcDbVertex
100
AcDb2dVertex
 10
7832.31543
 20
449.957001
 30
0.0
  0
VERTEX
  5
443
100
AcDbEntity
  8
0
100
AcDbVertex
100
AcDb2dVertex
 10
7830.951172
 20
449.976044
 30
0.0
  0
VERTEX
  5
444
100
AcDbEntity
  8
0
100
AcDbVertex
100
AcDb2dVertex
 10
7829.251953
 20
450.031921
 30
0.0
  0
VERTEX
  5
445
100
AcDbEntity
  8
0
100
AcDbVertex
100
AcDb2dVertex
 10
7827.553711
 20
450.122711
 30
0.0
  0
VERTEX
  5
446
100
AcDbEntity
  8
0
100
AcDbVertex
100
AcDb2dVertex
 10
7825.888184
 20
450.245789
 30
0.0
  0
VERTEX
  5
447
100
AcDbEntity
  8
0
100
AcDbVertex
100
AcDb2dVertex
 10
7824.225098
 20
450.403259
 30
0.0
  0
VERTEX
  5
448
100
AcDbEntity
  8
0
100
AcDbVertex
100
AcDb2dVertex
 10
7821.961426
 20
450.675354
 30
0.0
  0
VERTEX
  5
449
100
AcDbEntity
  8
0
100
AcDbVertex
100
AcDb2dVertex
 10
7819.708008
 20
451.021057
 30
0.0
  0
VERTEX
  5
44A
100
AcDbEntity
  8
0
100
AcDbVertex
100
AcDb2dVertex
 10
7817.983398
 20
451.343323
 30
0.0
  0
VERTEX
  5
44B
100
AcDbEntity
  8
0
100
AcDbVertex
100
AcDb2dVertex
 10
7816.271484
 20
451.723267
 30
0.0
  0
VERTEX
  5
44C
100
AcDbEntity
  8
0
100
AcDbVertex
100
AcDb2dVertex
 10
7814.929199
 20
452.072266
 30
0.0
  0
VERTEX
  5
44D
100
AcDbEntity
  8
0
100
AcDbVertex
100
AcDb2dVertex
 10
7813.603516
 20
452.477997
 30
0.0
  0
VERTEX
  5
44E
100
AcDbEntity
  8
0
100
AcDbVertex
100
AcDb2dVertex
 10
7812.614258
 20
452.830475
 30
0.0
  0
VERTEX
  5
44F
100
AcDbEntity
  8
0
100
AcDbVertex
100
AcDb2dVertex
 10
7811.638184
 20
453.219025
 30
0.0
  0
VERTEX
  5
450
100
AcDbEntity
  8
0
100
AcDbVertex
100
AcDb2dVertex
 10
7811.154297
 20
453.425415
 30
0.0
  0
SEQEND
  5
451
100
AcDbEntity
  8
0
  0
POLYLINE
  5
452
100
AcDbEntity
  8
0
 62
     7
100
AcDb2dPolyline
 66
     1
 10
0.0
 20
0.0
 30
0.0
 71
    93
  0
VERTEX
  5
453
100
AcDbEntity
  8
0
100
AcDbVertex
100
AcDb2dVertex
 10
7875.993652
 20
450.698944
 30
0.0
  0
VERTEX
  5
454
100
AcDbEntity
  8
0
100
AcDbVertex
100
AcDb2dVertex
 10
7876.120117
 20
451.055298
 30
0.0
  0
VERTEX
  5
455
100
AcDbEntity
  8
0
100
AcDbVertex
100
AcDb2dVertex
 10
7876.248535
 20
451.410858
 30
0.0
  0
VERTEX
  5
456
100
AcDbEntity
  8
0
100
AcDbVertex
100
AcDb2dVertex
 10
7876.369141
 20
451.733673
 30
0.0
  0
VERTEX
  5
457
100
AcDbEntity
  8
0
100
AcDbVertex
100
AcDb2dVertex
 10
7876.494141
 20
452.055054
 30
0.0
  0
VERTEX
  5
458
100
AcDbEntity
  8
0
100
AcDbVertex
100
AcDb2dVertex
 10
7876.605957
 20
452.33609
 30
0.0
  0
VERTEX
  5
459
100
AcDbEntity
  8
0
100
AcDbVertex
100
AcDb2dVertex
 10
7876.720703
 20
452.616272
 30
0.0
  0
VERTEX
  5
45A
100
AcDbEntity
  8
0
100
AcDbVertex
100
AcDb2dVertex
 10
7876.84668
 20
452.91272
 30
0.0
  0
VERTEX
  5
45B
100
AcDbEntity
  8
0
100
AcDbVertex
100
AcDb2dVertex
 10
7876.975098
 20
453.207672
 30
0.0
  0
VERTEX
  5
45C
100
AcDbEntity
  8
0
100
AcDbVertex
100
AcDb2dVertex
 10
7877.112793
 20
453.515289
 30
0.0
  0
VERTEX
  5
45D
100
AcDbEntity
  8
0
100
AcDbVertex
100
AcDb2dVertex
 10
7877.25293
 20
453.821442
 30
0.0
  0
VERTEX
  5
45E
100
AcDbEntity
  8
0
100
AcDbVertex
100
AcDb2dVertex
 10
7877.384766
 20
454.100159
 30
0.0
  0
VERTEX
  5
45F
100
AcDbEntity
  8
0
100
AcDbVertex
100
AcDb2dVertex
 10
7877.519531
 20
454.377167
 30
0.0
  0
VERTEX
  5
460
100
AcDbEntity
  8
0
100
AcDbVertex
100
AcDb2dVertex
 10
7877.663574
 20
454.661377
 30
0.0
  0
VERTEX
  5
461
100
AcDbEntity
  8
0
100
AcDbVertex
100
AcDb2dVertex
 10
7877.810059
 20
454.943878
 30
0.0
  0
VERTEX
  5
462
100
AcDbEntity
  8
0
100
AcDbVertex
100
AcDb2dVertex
 10
7877.947754
 20
455.202972
 30
0.0
  0
VERTEX
  5
463
100
AcDbEntity
  8
0
100
AcDbVertex
100
AcDb2dVertex
 10
7878.086914
 20
455.460815
 30
0.0
  0
VERTEX
  5
464
100
AcDbEntity
  8
0
100
AcDbVertex
100
AcDb2dVertex
 10
7878.265137
 20
455.778687
 30
0.0
  0
VERTEX
  5
465
100
AcDbEntity
  8
0
100
AcDbVertex
100
AcDb2dVertex
 10
7878.447266
 20
456.093781
 30
0.0
  0
VERTEX
  5
466
100
AcDbEntity
  8
0
100
AcDbVertex
100
AcDb2dVertex
 10
7878.659668
 20
456.447388
 30
0.0
  0
VERTEX
  5
467
100
AcDbEntity
  8
0
100
AcDbVertex
100
AcDb2dVertex
 10
7878.87793
 20
456.797302
 30
0.0
  0
VERTEX
  5
468
100
AcDbEntity
  8
0
100
AcDbVertex
100
AcDb2dVertex
 10
7879.073242
 20
457.100861
 30
0.0
  0
VERTEX
  5
469
100
AcDbEntity
  8
0
100
AcDbVertex
100
AcDb2dVertex
 10
7879.272461
 20
457.401367
 30
0.0
  0
VERTEX
  5
46A
100
AcDbEntity
  8
0
100
AcDbVertex
100
AcDb2dVertex
 10
7879.452637
 20
457.663727
 30
0.0
  0
VERTEX
  5
46B
100
AcDbEntity
  8
0
100
AcDbVertex
100
AcDb2dVertex
 10
7879.63623
 20
457.923737
 30
0.0
  0
VERTEX
  5
46C
100
AcDbEntity
  8
0
100
AcDbVertex
100
AcDb2dVertex
 10
7879.880371
 20
458.259216
 30
0.0
  0
VERTEX
  5
46D
100
AcDbEntity
  8
0
100
AcDbVertex
100
AcDb2dVertex
 10
7880.131348
 20
458.590057
 30
0.0
  0
VERTEX
  5
46E
100
AcDbEntity
  8
0
100
AcDbVertex
100
AcDb2dVertex
 10
7880.29541
 20
458.799713
 30
0.0
  0
VERTEX
  5
46F
100
AcDbEntity
  8
0
100
AcDbVertex
100
AcDb2dVertex
 10
7880.461426
 20
459.007568
 30
0.0
  0
VERTEX
  5
470
100
AcDbEntity
  8
0
100
AcDbVertex
100
AcDb2dVertex
 10
7880.655273
 20
459.243042
 30
0.0
  0
VERTEX
  5
471
100
AcDbEntity
  8
0
100
AcDbVertex
100
AcDb2dVertex
 10
7880.851563
 20
459.475952
 30
0.0
  0
VERTEX
  5
472
100
AcDbEntity
  8
0
100
AcDbVertex
100
AcDb2dVertex
 10
7881.058594
 20
459.713776
 30
0.0
  0
VERTEX
  5
473
100
AcDbEntity
  8
0
100
AcDbVertex
100
AcDb2dVertex
 10
7881.269043
 20
459.948517
 30
0.0
  0
VERTEX
  5
474
100
AcDbEntity
  8
0
100
AcDbVertex
100
AcDb2dVertex
 10
7881.510254
 20
460.20871
 30
0.0
  0
VERTEX
  5
475
100
AcDbEntity
  8
0
100
AcDbVertex
100
AcDb2dVertex
 10
7881.755371
 20
460.464905
 30
0.0
  0
VERTEX
  5
476
100
AcDbEntity
  8
0
100
AcDbVertex
100
AcDb2dVertex
 10
7881.902832
 20
460.614655
 30
0.0
  0
VERTEX
  5
477
100
AcDbEntity
  8
0
100
AcDbVertex
100
AcDb2dVertex
 10
7882.050781
 20
460.762787
 30
0.0
  0
VERTEX
  5
478
100
AcDbEntity
  8
0
100
AcDbVertex
100
AcDb2dVertex
 10
7882.189941
 20
460.898865
 30
0.0
  0
VERTEX
  5
479
100
AcDbEntity
  8
0
100
AcDbVertex
100
AcDb2dVertex
 10
7882.330566
 20
461.03363
 30
0.0
  0
VERTEX
  5
47A
100
AcDbEntity
  8
0
100
AcDbVertex
100
AcDb2dVertex
 10
7882.556152
 20
461.245117
 30
0.0
  0
VERTEX
  5
47B
100
AcDbEntity
  8
0
100
AcDbVertex
100
AcDb2dVertex
 10
7882.785156
 20
461.453125
 30
0.0
  0
VERTEX
  5
47C
100
AcDbEntity
  8
0
100
AcDbVertex
100
AcDb2dVertex
 10
7882.933105
 20
461.584198
 30
0.0
  0
VERTEX
  5
47D
100
AcDbEntity
  8
0
100
AcDbVertex
100
AcDb2dVertex
 10
7883.08252
 20
461.713684
 30
0.0
  0
VERTEX
  5
47E
100
AcDbEntity
  8
0
100
AcDbVertex
100
AcDb2dVertex
 10
7883.284668
 20
461.884705
 30
0.0
  0
VERTEX
  5
47F
100
AcDbEntity
  8
0
100
AcDbVertex
100
AcDb2dVertex
 10
7883.48877
 20
462.052948
 30
0.0
  0
VERTEX
  5
480
100
AcDbEntity
  8
0
100
AcDbVertex
100
AcDb2dVertex
 10
7883.748535
 20
462.260986
 30
0.0
  0
VERTEX
  5
481
100
AcDbEntity
  8
0
100
AcDbVertex
100
AcDb2dVertex
 10
7884.01123
 20
462.464752
 30
0.0
  0
VERTEX
  5
482
100
AcDbEntity
  8
0
100
AcDbVertex
100
AcDb2dVertex
 10
7884.24707
 20
462.641846
 30
0.0
  0
VERTEX
  5
483
100
AcDbEntity
  8
0
100
AcDbVertex
100
AcDb2dVertex
 10
7884.48584
 20
462.815216
 30
0.0
  0
VERTEX
  5
484
100
AcDbEntity
  8
0
100
AcDbVertex
100
AcDb2dVertex
 10
7884.70166
 20
462.967407
 30
0.0
  0
VERTEX
  5
485
100
AcDbEntity
  8
0
100
AcDbVertex
100
AcDb2dVertex
 10
7884.919434
 20
463.116608
 30
0.0
  0
VERTEX
  5
486
100
AcDbEntity
  8
0
100
AcDbVertex
100
AcDb2dVertex
 10
7885.153809
 20
463.272797
 30
0.0
  0
VERTEX
  5
487
100
AcDbEntity
  8
0
100
AcDbVertex
100
AcDb2dVertex
 10
7885.390625
 20
463.425537
 30
0.0
  0
VERTEX
  5
488
100
AcDbEntity
  8
0
100
AcDbVertex
100
AcDb2dVertex
 10
7885.626465
 20
463.572357
 30
0.0
  0
VERTEX
  5
489
100
AcDbEntity
  8
0
100
AcDbVertex
100
AcDb2dVertex
 10
7885.86377
 20
463.715942
 30
0.0
  0
VERTEX
  5
48A
100
AcDbEntity
  8
0
100
AcDbVertex
100
AcDb2dVertex
 10
7886.05127
 20
463.826324
 30
0.0
  0
VERTEX
  5
48B
100
AcDbEntity
  8
0
100
AcDbVertex
100
AcDb2dVertex
 10
7886.239746
 20
463.934937
 30
0.0
  0
VERTEX
  5
48C
100
AcDbEntity
  8
0
100
AcDbVertex
100
AcDb2dVertex
 10
7886.519531
 20
464.090912
 30
0.0
  0
VERTEX
  5
48D
100
AcDbEntity
  8
0
100
AcDbVertex
100
AcDb2dVertex
 10
7886.801758
 20
464.242554
 30
0.0
  0
VERTEX
  5
48E
100
AcDbEntity
  8
0
100
AcDbVertex
100
AcDb2dVertex
 10
7886.977539
 20
464.333588
 30
0.0
  0
VERTEX
  5
48F
100
AcDbEntity
  8
0
100
AcDbVertex
100
AcDb2dVertex
 10
7887.154297
 20
464.422913
 30
0.0
  0
VERTEX
  5
490
100
AcDbEntity
  8
0
100
AcDbVertex
100
AcDb2dVertex
 10
7887.485352
 20
464.584381
 30
0.0
  0
VERTEX
  5
491
100
AcDbEntity
  8
0
100
AcDbVertex
100
AcDb2dVertex
 10
7887.819336
 20
464.739868
 30
0.0
  0
VERTEX
  5
492
100
AcDbEntity
  8
0
100
AcDbVertex
100
AcDb2dVertex
 10
7888.158691
 20
464.890564
 30
0.0
  0
VERTEX
  5
493
100
AcDbEntity
  8
0
100
AcDbVertex
100
AcDb2dVertex
 10
7888.500977
 20
465.035217
 30
0.0
  0
VERTEX
  5
494
100
AcDbEntity
  8
0
100
AcDbVertex
100
AcDb2dVertex
 10
7888.871094
 20
465.184265
 30
0.0
  0
VERTEX
  5
495
100
AcDbEntity
  8
0
100
AcDbVertex
100
AcDb2dVertex
 10
7889.244629
 20
465.326172
 30
0.0
  0
VERTEX
  5
496
100
AcDbEntity
  8
0
100
AcDbVertex
100
AcDb2dVertex
 10
7889.605469
 20
465.455597
 30
0.0
  0
VERTEX
  5
497
100
AcDbEntity
  8
0
100
AcDbVertex
100
AcDb2dVertex
 10
7889.969238
 20
465.578644
 30
0.0
  0
VERTEX
  5
498
100
AcDbEntity
  8
0
100
AcDbVertex
100
AcDb2dVertex
 10
7890.211426
 20
465.65686
 30
0.0
  0
VERTEX
  5
499
100
AcDbEntity
  8
0
100
AcDbVertex
100
AcDb2dVertex
 10
7890.455078
 20
465.732117
 30
0.0
  0
VERTEX
  5
49A
100
AcDbEntity
  8
0
100
AcDbVertex
100
AcDb2dVertex
 10
7890.751465
 20
465.819641
 30
0.0
  0
VERTEX
  5
49B
100
AcDbEntity
  8
0
100
AcDbVertex
100
AcDb2dVertex
 10
7891.049316
 20
465.902954
 30
0.0
  0
VERTEX
  5
49C
100
AcDbEntity
  8
0
100
AcDbVertex
100
AcDb2dVertex
 10
7891.417969
 20
466.0
 30
0.0
  0
VERTEX
  5
49D
100
AcDbEntity
  8
0
100
AcDbVertex
100
AcDb2dVertex
 10
7891.787109
 20
466.09082
 30
0.0
  0
VERTEX
  5
49E
100
AcDbEntity
  8
0
100
AcDbVertex
100
AcDb2dVertex
 10
7892.105469
 20
466.16333
 30
0.0
  0
VERTEX
  5
49F
100
AcDbEntity
  8
0
100
AcDbVertex
100
AcDb2dVertex
 10
7892.42334
 20
466.231262
 30
0.0
  0
VERTEX
  5
4A0
100
AcDbEntity
  8
0
100
AcDbVertex
100
AcDb2dVertex
 10
7892.724121
 20
466.29184
 30
0.0
  0
VERTEX
  5
4A1
100
AcDbEntity
  8
0
100
AcDbVertex
100
AcDb2dVertex
 10
7893.026367
 20
466.348816
 30
0.0
  0
VERTEX
  5
4A2
100
AcDbEntity
  8
0
100
AcDbVertex
100
AcDb2dVertex
 10
7893.395996
 20
466.412506
 30
0.0
  0
VERTEX
  5
4A3
100
AcDbEntity
  8
0
100
AcDbVertex
100
AcDb2dVertex
 10
7893.76709
 20
466.470581
 30
0.0
  0
VERTEX
  5
4A4
100
AcDbEntity
  8
0
100
AcDbVertex
100
AcDb2dVertex
 10
7894.20166
 20
466.531525
 30
0.0
  0
VERTEX
  5
4A5
100
AcDbEntity
  8
0
100
AcDbVertex
100
AcDb2dVertex
 10
7894.637695
 20
466.585205
 30
0.0
  0
VERTEX
  5
4A6
100
AcDbEntity
  8
0
100
AcDbVertex
100
AcDb2dVertex
 10
7894.991699
 20
466.62326
 30
0.0
  0
VERTEX
  5
4A7
100
AcDbEntity
  8
0
100
AcDbVertex
100
AcDb2dVertex
 10
7895.345703
 20
466.656616
 30
0.0
  0
VERTEX
  5
4A8
100
AcDbEntity
  8
0
100
AcDbVertex
100
AcDb2dVertex
 10
7895.715332
 20
466.686432
 30
0.0
  0
VERTEX
  5
4A9
100
AcDbEntity
  8
0
100
AcDbVertex
100
AcDb2dVertex
 10
7896.086426
 20
466.711151
 30
0.0
  0
VERTEX
  5
4AA
100
AcDbEntity
  8
0
100
AcDbVertex
100
AcDb2dVertex
 10
7896.390625
 20
466.727631
 30
0.0
  0
VERTEX
  5
4AB
100
AcDbEntity
  8
0
100
AcDbVertex
100
AcDb2dVertex
 10
7896.694336
 20
466.740845
 30
0.0
  0
VERTEX
  5
4AC
100
AcDbEntity
  8
0
100
AcDbVertex
100
AcDb2dVertex
 10
7896.949219
 20
466.74942
 30
0.0
  0
VERTEX
  5
4AD
100
AcDbEntity
  8
0
100
AcDbVertex
100
AcDb2dVertex
 10
7897.203125
 20
466.75531
 30
0.0
  0
VERTEX
  5
4AE
100
AcDbEntity
  8
0
100
AcDbVertex
100
AcDb2dVertex
 10
7897.504395
 20
466.758972
 30
0.0
  0
VERTEX
  5
4AF
100
AcDbEntity
  8
0
100
AcDbVertex
100
AcDb2dVertex
 10
7897.806152
 20
466.761505
 30
0.0
  0
SEQEND
  5
4B0
100
AcDbEntity
  8
0
  0
POLYLINE
  5
4B1
100
AcDbEntity
  8
0
 62
     7
100
AcDb2dPolyline
 66
     1
 10
0.0
 20
0.0
 30
0.0
 71
    65
  0
VERTEX
  5
4B2
100
AcDbEntity
  8
0
100
AcDbVertex
100
AcDb2dVertex
 10
7906.887207
 20
453.804962
 30
0.0
  0
VERTEX
  5
4B3
100
AcDbEntity
  8
0
100
AcDbVertex
100
AcDb2dVertex
 10
7906.619629
 20
453.800934
 30
0.0
  0
VERTEX
  5
4B4
100
AcDbEntity
  8
0
100
AcDbVertex
100
AcDb2dVertex
 10
7906.352051
 20
453.795288
 30
0.0
  0
VERTEX
  5
4B5
100
AcDbEntity
  8
0
100
AcDbVertex
100
AcDb2dVertex
 10
7906.075684
 20
453.783905
 30
0.0
  0
VERTEX
  5
4B6
100
AcDbEntity
  8
0
100
AcDbVertex
100
AcDb2dVertex
 10
7905.799805
 20
453.766174
 30
0.0
  0
VERTEX
  5
4B7
100
AcDbEntity
  8
0
100
AcDbVertex
100
AcDb2dVertex
 10
7905.557617
 20
453.745667
 30
0.0
  0
VERTEX
  5
4B8
100
AcDbEntity
  8
0
100
AcDbVertex
100
AcDb2dVertex
 10
7905.315918
 20
453.720398
 30
0.0
  0
VERTEX
  5
4B9
100
AcDbEntity
  8
0
100
AcDbVertex
100
AcDb2dVertex
 10
7905.133789
 20
453.698395
 30
0.0
  0
VERTEX
  5
4BA
100
AcDbEntity
  8
0
100
AcDbVertex
100
AcDb2dVertex
 10
7904.952637
 20
453.67334
 30
0.0
  0
VERTEX
  5
4BB
100
AcDbEntity
  8
0
100
AcDbVertex
100
AcDb2dVertex
 10
7904.740723
 20
453.640167
 30
0.0
  0
VERTEX
  5
4BC
100
AcDbEntity
  8
0
100
AcDbVertex
100
AcDb2dVertex
 10
7904.528809
 20
453.602844
 30
0.0
  0
VERTEX
  5
4BD
100
AcDbEntity
  8
0
100
AcDbVertex
100
AcDb2dVertex
 10
7904.284668
 20
453.554504
 30
0.0
  0
VERTEX
  5
4BE
100
AcDbEntity
  8
0
100
AcDbVertex
100
AcDb2dVertex
 10
7904.041504
 20
453.500488
 30
0.0
  0
VERTEX
  5
4BF
100
AcDbEntity
  8
0
100
AcDbVertex
100
AcDb2dVertex
 10
7903.80957
 20
453.442078
 30
0.0
  0
VERTEX
  5
4C0
100
AcDbEntity
  8
0
100
AcDbVertex
100
AcDb2dVertex
 10
7903.578613
 20
453.377228
 30
0.0
  0
VERTEX
  5
4C1
100
AcDbEntity
  8
0
100
AcDbVertex
100
AcDb2dVertex
 10
7903.34668
 20
453.304901
 30
0.0
  0
VERTEX
  5
4C2
100
AcDbEntity
  8
0
100
AcDbVertex
100
AcDb2dVertex
 10
7903.116699
 20
453.226349
 30
0.0
  0
VERTEX
  5
4C3
100
AcDbEntity
  8
0
100
AcDbVertex
100
AcDb2dVertex
 10
7902.912598
 20
453.15036
 30
0.0
  0
VERTEX
  5
4C4
100
AcDbEntity
  8
0
100
AcDbVertex
100
AcDb2dVertex
 10
7902.710938
 20
453.068512
 30
0.0
  0
VERTEX
  5
4C5
100
AcDbEntity
  8
0
100
AcDbVertex
100
AcDb2dVertex
 10
7902.519531
 20
452.9841
 30
0.0
  0
VERTEX
  5
4C6
100
AcDbEntity
  8
0
100
AcDbVertex
100
AcDb2dVertex
 10
7902.330566
 20
452.894226
 30
0.0
  0
VERTEX
  5
4C7
100
AcDbEntity
  8
0
100
AcDbVertex
100
AcDb2dVertex
 10
7902.111328
 20
452.782318
 30
0.0
  0
VERTEX
  5
4C8
100
AcDbEntity
  8
0
100
AcDbVertex
100
AcDb2dVertex
 10
7901.895508
 20
452.663116
 30
0.0
  0
VERTEX
  5
4C9
100
AcDbEntity
  8
0
100
AcDbVertex
100
AcDb2dVertex
 10
7901.686035
 20
452.537537
 30
0.0
  0
VERTEX
  5
4CA
100
AcDbEntity
  8
0
100
AcDbVertex
100
AcDb2dVertex
 10
7901.480957
 20
452.404602
 30
0.0
  0
VERTEX
  5
4CB
100
AcDbEntity
  8
0
100
AcDbVertex
100
AcDb2dVertex
 10
7901.283691
 20
452.266876
 30
0.0
  0
VERTEX
  5
4CC
100
AcDbEntity
  8
0
100
AcDbVertex
100
AcDb2dVertex
 10
7901.091309
 20
452.122772
 30
0.0
  0
VERTEX
  5
4CD
100
AcDbEntity
  8
0
100
AcDbVertex
100
AcDb2dVertex
 10
7900.922852
 20
451.988403
 30
0.0
  0
VERTEX
  5
4CE
100
AcDbEntity
  8
0
100
AcDbVertex
100
AcDb2dVertex
 10
7900.758301
 20
451.84903
 30
0.0
  0
VERTEX
  5
4CF
100
AcDbEntity
  8
0
100
AcDbVertex
100
AcDb2dVertex
 10
7900.591797
 20
451.698181
 30
0.0
  0
VERTEX
  5
4D0
100
AcDbEntity
  8
0
100
AcDbVertex
100
AcDb2dVertex
 10
7900.429199
 20
451.542328
 30
0.0
  0
VERTEX
  5
4D1
100
AcDbEntity
  8
0
100
AcDbVertex
100
AcDb2dVertex
 10
7900.277344
 20
451.388184
 30
0.0
  0
VERTEX
  5
4D2
100
AcDbEntity
  8
0
100
AcDbVertex
100
AcDb2dVertex
 10
7900.129395
 20
451.22998
 30
0.0
  0
VERTEX
  5
4D3
100
AcDbEntity
  8
0
100
AcDbVertex
100
AcDb2dVertex
 10
7899.952148
 20
451.027466
 30
0.0
  0
VERTEX
  5
4D4
100
AcDbEntity
  8
0
100
AcDbVertex
100
AcDb2dVertex
 10
7899.78125
 20
450.819641
 30
0.0
  0
VERTEX
  5
4D5
100
AcDbEntity
  8
0
100
AcDbVertex
100
AcDb2dVertex
 10
7899.621582
 20
450.614929
 30
0.0
  0
VERTEX
  5
4D6
100
AcDbEntity
  8
0
100
AcDbVertex
100
AcDb2dVertex
 10
7899.467773
 20
450.406189
 30
0.0
  0
VERTEX
  5
4D7
100
AcDbEntity
  8
0
100
AcDbVertex
100
AcDb2dVertex
 10
7899.281738
 20
450.136993
 30
0.0
  0
VERTEX
  5
4D8
100
AcDbEntity
  8
0
100
AcDbVertex
100
AcDb2dVertex
 10
7899.10498
 20
449.862
 30
0.0
  0
VERTEX
  5
4D9
100
AcDbEntity
  8
0
100
AcDbVertex
100
AcDb2dVertex
 10
7898.990723
 20
449.675934
 30
0.0
  0
VERTEX
  5
4DA
100
AcDbEntity
  8
0
100
AcDbVertex
100
AcDb2dVertex
 10
7898.879395
 20
449.487549
 30
0.0
  0
VERTEX
  5
4DB
100
AcDbEntity
  8
0
100
AcDbVertex
100
AcDb2dVertex
 10
7898.773926
 20
449.300568
 30
0.0
  0
VERTEX
  5
4DC
100
AcDbEntity
  8
0
100
AcDbVertex
100
AcDb2dVertex
 10
7898.671875
 20
449.111969
 30
0.0
  0
VERTEX
  5
4DD
100
AcDbEntity
  8
0
100
AcDbVertex
100
AcDb2dVertex
 10
7898.563965
 20
448.907257
 30
0.0
  0
VERTEX
  5
4DE
100
AcDbEntity
  8
0
100
AcDbVertex
100
AcDb2dVertex
 10
7898.458984
 20
448.701477
 30
0.0
  0
VERTEX
  5
4DF
100
AcDbEntity
  8
0
100
AcDbVertex
100
AcDb2dVertex
 10
7898.333984
 20
448.445282
 30
0.0
  0
VERTEX
  5
4E0
100
AcDbEntity
  8
0
100
AcDbVertex
100
AcDb2dVertex
 10
7898.212402
 20
448.187347
 30
0.0
  0
VERTEX
  5
4E1
100
AcDbEntity
  8
0
100
AcDbVertex
100
AcDb2dVertex
 10
7898.109375
 20
447.958405
 30
0.0
  0
VERTEX
  5
4E2
100
AcDbEntity
  8
0
100
AcDbVertex
100
AcDb2dVertex
 10
7898.007813
 20
447.728424
 30
0.0
  0
VERTEX
  5
4E3
100
AcDbEntity
  8
0
100
AcDbVertex
100
AcDb2dVertex
 10
7897.912109
 20
447.503601
 30
0.0
  0
VERTEX
  5
4E4
100
AcDbEntity
  8
0
100
AcDbVertex
100
AcDb2dVertex
 10
7897.818359
 20
447.277832
 30
0.0
  0
VERTEX
  5
4E5
100
AcDbEntity
  8
0
100
AcDbVertex
100
AcDb2dVertex
 10
7897.730469
 20
447.061188
 30
0.0
  0
VERTEX
  5
4E6
100
AcDbEntity
  8
0
100
AcDbVertex
100
AcDb2dVertex
 10
7897.644043
 20
446.843872
 30
0.0
  0
VERTEX
  5
4E7
100
AcDbEntity
  8
0
100
AcDbVertex
100
AcDb2dVertex
 10
7897.567383
 20
446.64502
 30
0.0
  0
VERTEX
  5
4E8
100
AcDbEntity
  8
0
100
AcDbVertex
100
AcDb2dVertex
 10
7897.491211
 20
446.445801
 30
0.0
  0
VERTEX
  5
4E9
100
AcDbEntity
  8
0
100
AcDbVertex
100
AcDb2dVertex
 10
7897.406738
 20
446.222015
 30
0.0
  0
VERTEX
  5
4EA
100
AcDbEntity
  8
0
100
AcDbVertex
100
AcDb2dVertex
 10
7897.32373
 20
445.997894
 30
0.0
  0
VERTEX
  5
4EB
100
AcDbEntity
  8
0
100
AcDbVertex
100
AcDb2dVertex
 10
7897.240723
 20
445.772888
 30
0.0
  0
VERTEX
  5
4EC
100
AcDbEntity
  8
0
100
AcDbVertex
100
AcDb2dVertex
 10
7897.15918
 20
445.547302
 30
0.0
  0
VERTEX
  5
4ED
100
AcDbEntity
  8
0
100
AcDbVertex
100
AcDb2dVertex
 10
7897.069336
 20
445.291687
 30
0.0
  0
VERTEX
  5
4EE
100
AcDbEntity
  8
0
100
AcDbVertex
100
AcDb2dVertex
 10
7896.979492
 20
445.035889
 30
0.0
  0
VERTEX
  5
4EF
100
AcDbEntity
  8
0
100
AcDbVertex
100
AcDb2dVertex
 10
7896.907715
 20
444.832611
 30
0.0
  0
VERTEX
  5
4F0
100
AcDbEntity
  8
0
100
AcDbVertex
100
AcDb2dVertex
 10
7896.835449
 20
444.629547
 30
0.0
  0
VERTEX
  5
4F1
100
AcDbEntity
  8
0
100
AcDbVertex
100
AcDb2dVertex
 10
7896.763672
 20
444.420807
 30
0.0
  0
VERTEX
  5
4F2
100
AcDbEntity
  8
0
100
AcDbVertex
100
AcDb2dVertex
 10
7896.691406
 20
444.212067
 30
0.0
  0
SEQEND
  5
4F3
100
AcDbEntity
  8
0
  0
LINE
  5
4F4
100
AcDbEntity
  8
0
 62
     7
100
AcDbLine
 10
7889.025879
 20
422.593353
 30
0.0
 11
7866.021973
 21
422.593353
 31
0.0
210
0.0
220
0.0
230
1.0
  0
LINE
  5
4F5
100
AcDbEntity
  8
0
 62
     7
100
AcDbLine
 10
7683.659668
 20
422.593353
 30
0.0
 11
7660.657227
 21
422.593353
 31
0.0
210
0.0
220
0.0
230
1.0
  0
LINE
  5
4F6
100
AcDbEntity
  8
0
 62
     7
100
AcDbLine
 10
7636.504395
 20
422.593353
 30
0.0
 11
7613.506348
 21
422.593353
 31
0.0
210
0.0
220
0.0
230
1.0
  0
LINE
  5
4F7
100
AcDbEntity
  8
0
 62
     7
100
AcDbLine
 10
7490.605469
 20
422.593353
 30
0.0
 11
7514.427734
 21
422.593353
 31
0.0
210
0.0
220
0.0
230
1.0
  0
LINE
  5
4F8
100
AcDbEntity
  8
0
 62
     7
100
AcDbLine
 10
7410.270996
 20
422.597595
 30
0.0
 11
7385.138672
 21
422.597595
 31
0.0
210
0.0
220
0.0
230
1.0
  0
LINE
  5
4F9
100
AcDbEntity
  8
0
 62
     7
 48
0.404114
100
AcDbLine
 10
7923.051758
 20
453.804962
 30
0.0
 11
7906.887207
 21
453.804962
 31
0.0
210
0.0
220
0.0
230
1.0
  0
LINE
  5
4FA
100
AcDbEntity
  8
0
 62
     7
100
AcDbLine
 10
7530.524902
 20
466.760406
 30
0.0
 11
7506.703613
 21
466.760406
 31
0.0
210
0.0
220
0.0
230
1.0
  0
LINE
  5
4FB
100
AcDbEntity
  8
0
 62
     7
100
AcDbLine
 10
7897.806152
 20
466.761505
 30
0.0
 11
7927.587891
 21
466.761505
 31
0.0
210
0.0
220
0.0
230
1.0
  0
LINE
  5
4FC
100
AcDbEntity
  8
0
 62
     7
 48
0.467983
100
AcDbLine
 10
7434.291016
 20
447.720184
 30
0.0
 11
7430.267578
 21
466.002014
 31
0.0
210
0.0
220
0.0
230
1.0
  0
LINE
  5
4FD
100
AcDbEntity
  8
0
 62
     7
100
AcDbLine
 10
7424.897949
 20
463.439972
 30
0.0
 11
7410.28125
 21
422.593567
 31
0.0
210
0.0
220
0.0
230
1.0
  0
LINE
  5
4FE
100
AcDbEntity
  8
0
 62
     7
100
AcDbLine
 10
7385.138672
 20
422.597595
 30
0.0
 11
7399.505859
 21
462.071655
 31
0.0
210
0.0
220
0.0
230
1.0
  0
LINE
  5
4FF
100
AcDbEntity
  8
0
 62
     7
100
AcDbLine
 10
7506.703613
 20
466.760406
 30
0.0
 11
7490.605469
 21
422.593353
 31
0.0
210
0.0
220
0.0
230
1.0
  0
LINE
  5
500
100
AcDbEntity
  8
0
 62
     7
100
AcDbLine
 10
7514.427734
 20
422.593353
 30
0.0
 11
7530.524902
 21
466.760406
 31
0.0
210
0.0
220
0.0
230
1.0
  0
LINE
  5
501
100
AcDbEntity
  8
0
 62
     7
 48
0.363534
100
AcDbLine
 10
7776.183105
 20
438.117615
 30
0.0
 11
7771.215332
 21
424.451141
 31
0.0
210
0.0
220
0.0
230
1.0
  0
LINE
  5
502
100
AcDbEntity
  8
0
 62
     7
100
AcDbLine
 10
7613.506348
 20
422.593353
 30
0.0
 11
7622.176758
 21
446.378021
 31
0.0
210
0.0
220
0.0
230
1.0
  0
LINE
  5
503
100
AcDbEntity
  8
0
 62
     7
100
AcDbLine
 10
7645.166016
 20
446.350372
 30
0.0
 11
7636.504395
 21
422.593353
 31
0.0
210
0.0
220
0.0
230
1.0
  0
LINE
  5
504
100
AcDbEntity
  8
0
 62
     7
100
AcDbLine
 10
7692.291016
 20
446.271637
 30
0.0
 11
7683.659668
 21
422.593353
 31
0.0
210
0.0
220
0.0
230
1.0
  0
LINE
  5
505
100
AcDbEntity
  8
0
 62
     7
100
AcDbLine
 10
7660.657227
 20
422.593353
 30
0.0
 11
7669.159668
 21
445.902496
 31
0.0
210
0.0
220
0.0
230
1.0
  0
LINE
  5
506
100
AcDbEntity
  8
0
 62
     7
 48
0.343191
100
AcDbLine
 10
7927.587891
 20
466.761505
 30
0.0
 11
7923.051758
 21
453.804962
 31
0.0
210
0.0
220
0.0
230
1.0
  0
LINE
  5
507
100
AcDbEntity
  8
0
 62
     7
100
AcDbLine
 10
7896.691406
 20
444.212067
 30
0.0
 11
7889.025879
 21
422.593353
 31
0.0
210
0.0
220
0.0
230
1.0
  0
LINE
  5
508
100
AcDbEntity
  8
0
 62
     7
100
AcDbLine
 10
7866.021973
 20
422.593353
 30
0.0
 11
7875.993652
 21
450.698944
 31
0.0
210
0.0
220
0.0
230
1.0
  0
LINE
  5
509
100
AcDbEntity
  8
0
 62
     7
 48
0.363534
100
AcDbLine
 10
7863.166016
 20
438.117615
 30
0.0
 11
7858.198242
 21
424.451141
 31
0.0
210
0.0
220
0.0
230
1.0
  0
LINE
  5
50A
100
AcDbEntity
  8
0
 62
     7
 48
0.471332
100
AcDbLine
 10
4335.804688
 20
2954.099365
 30
0.0
 11
4335.804688
 21
2972.952637
 31
0.0
210
0.0
220
0.0
230
1.0
  0
POLYLINE
  5
50B
100
AcDbEntity
  8
0
 62
     7
100
AcDb2dPolyline
 66
     1
 10
0.0
 20
0.0
 30
0.0
 71
     3
  0
VERTEX
  5
50C
100
AcDbEntity
  8
0
100
AcDbVertex
100
AcDb2dVertex
 10
4335.804688
 20
2963.525879
 30
0.0
  0
VERTEX
  5
50D
100
AcDbEntity
  8
0
100
AcDbVertex
100
AcDb2dVertex
 10
4292.471191
 20
2963.525879
 30
0.0
  0
VERTEX
  5
50E
100
AcDbEntity
  8
0
100
AcDbVertex
100
AcDb2dVertex
 10
4305.804688
 20
2951.742432
 30
0.0
  0
SEQEND
  5
50F
100
AcDbEntity
  8
0
  0
POLYLINE
  5
510
100
AcDbEntity
  8
0
 62
     7
100
AcDb2dPolyline
 66
     1
 10
0.0
 20
0.0
 30
0.0
 70
     1
 71
     8
  0
VERTEX
  5
511
100
AcDbEntity
  8
0
100
AcDbVertex
100
AcDb2dVertex
 10
4325.804688
 20
2982.952637
 30
0.0
  0
VERTEX
  5
512
100
AcDbEntity
  8
0
100
AcDbVertex
100
AcDb2dVertex
 10
4335.804688
 20
2990.022949
 30
0.0
  0
VERTEX
  5
513
100
AcDbEntity
  8
0
100
AcDbVertex
100
AcDb2dVertex
 10
4335.804688
 20
3001.805908
 30
0.0
  0
VERTEX
  5
514
100
AcDbEntity
  8
0
100
AcDbVertex
100
AcDb2dVertex
 10
4325.804688
 20
3008.875977
 30
0.0
  0
VERTEX
  5
515
100
AcDbEntity
  8
0
100
AcDbVertex
100
AcDb2dVertex
 10
4302.471191
 20
3008.875977
 30
0.0
  0
VERTEX
  5
516
100
AcDbEntity
  8
0
100
AcDbVertex
100
AcDb2dVertex
 10
4292.471191
 20
3001.805908
 30
0.0
  0
VERTEX
  5
517
100
AcDbEntity
  8
0
100
AcDbVertex
100
AcDb2dVertex
 10
4292.471191
 20
2990.022949
 30
0.0
  0
VERTEX
  5
518
100
AcDbEntity
  8
0
100
AcDbVertex
100
AcDb2dVertex
 10
4302.471191
 20
2982.952637
 30
0.0
  0
SEQEND
  5
519
100
AcDbEntity
  8
0
  0
POLYLINE
  5
51A
100
AcDbEntity
  8
0
 62
     7
100
AcDb2dPolyline
 66
     1
 10
0.0
 20
0.0
 30
0.0
 71
    16
  0
VERTEX
  5
51B
100
AcDbEntity
  8
0
100
AcDbVertex
100
AcDb2dVertex
 10
4312.471191
 20
3023.589355
 30
0.0
  0
VERTEX
  5
51C
100
AcDbEntity
  8
0
100
AcDbVertex
100
AcDb2dVertex
 10
4319.138184
 20
3018.875977
 30
0.0
  0
VERTEX
  5
51D
100
AcDbEntity
  8
0
100
AcDbVertex
100
AcDb2dVertex
 10
4329.138184
 20
3018.875977
 30
0.0
  0
VERTEX
  5
51E
100
AcDbEntity
  8
0
100
AcDbVertex
100
AcDb2dVertex
 10
4335.804688
 20
3023.589355
 30
0.0
  0
VERTEX
  5
51F
100
AcDbEntity
  8
0
100
AcDbVertex
100
AcDb2dVertex
 10
4335.804688
 20
3040.085938
 30
0.0
  0
VERTEX
  5
520
100
AcDbEntity
  8
0
100
AcDbVertex
100
AcDb2dVertex
 10
4329.138184
 20
3044.799561
 30
0.0
  0
VERTEX
  5
521
100
AcDbEntity
  8
0
100
AcDbVertex
100
AcDb2dVertex
 10
4319.138184
 20
3044.799561
 30
0.0
  0
VERTEX
  5
522
100
AcDbEntity
  8
0
100
AcDbVertex
100
AcDb2dVertex
 10
4312.471191
 20
3040.085938
 30
0.0
  0
VERTEX
  5
523
100
AcDbEntity
  8
0
100
AcDbVertex
100
AcDb2dVertex
 10
4312.471191
 20
3023.589355
 30
0.0
  0
VERTEX
  5
524
100
AcDbEntity
  8
0
100
AcDbVertex
100
AcDb2dVertex
 10
4305.804688
 20
3018.875977
 30
0.0
  0
VERTEX
  5
525
100
AcDbEntity
  8
0
100
AcDbVertex
100
AcDb2dVertex
 10
4299.138184
 20
3018.875977
 30
0.0
  0
VERTEX
  5
526
100
AcDbEntity
  8
0
100
AcDbVertex
100
AcDb2dVertex
 10
4292.471191
 20
3023.589355
 30
0.0
  0
VERTEX
  5
527
100
AcDbEntity
  8
0
100
AcDbVertex
100
AcDb2dVertex
 10
4292.471191
 20
3040.085938
 30
0.0
  0
VERTEX
  5
528
100
AcDbEntity
  8
0
100
AcDbVertex
100
AcDb2dVertex
 10
4299.138184
 20
3044.799561
 30
0.0
  0
VERTEX
  5
529
100
AcDbEntity
  8
0
100
AcDbVertex
100
AcDb2dVertex
 10
4305.804688
 20
3044.799561
 30
0.0
  0
VERTEX
  5
52A
100
AcDbEntity
  8
0
100
AcDbVertex
100
AcDb2dVertex
 10
4312.471191
 20
3040.085938
 30
0.0
  0
SEQEND
  5
52B
100
AcDbEntity
  8
0
  0
POLYLINE
  5
52C
100
AcDbEntity
  8
0
 62
     7
100
AcDb2dPolyline
 66
     1
 10
0.0
 20
0.0
 30
0.0
 71
     7
  0
VERTEX
  5
52D
100
AcDbEntity
  8
0
100
AcDbVertex
100
AcDb2dVertex
 10
4329.138184
 20
3054.799561
 30
0.0
  0
VERTEX
  5
52E
100
AcDbEntity
  8
0
100
AcDbVertex
100
AcDb2dVertex
 10
4335.804688
 20
3059.512695
 30
0.0
  0
VERTEX
  5
52F
100
AcDbEntity
  8
0
100
AcDbVertex
100
AcDb2dVertex
 10
4335.804688
 20
3076.009521
 30
0.0
  0
VERTEX
  5
530
100
AcDbEntity
  8
0
100
AcDbVertex
100
AcDb2dVertex
 10
4329.138184
 20
3080.722656
 30
0.0
  0
VERTEX
  5
531
100
AcDbEntity
  8
0
100
AcDbVertex
100
AcDb2dVertex
 10
4319.138184
 20
3080.722656
 30
0.0
  0
VERTEX
  5
532
100
AcDbEntity
  8
0
100
AcDbVertex
100
AcDb2dVertex
 10
4312.471191
 20
3076.009521
 30
0.0
  0
VERTEX
  5
533
100
AcDbEntity
  8
0
100
AcDbVertex
100
AcDb2dVertex
 10
4312.471191
 20
3064.226074
 30
0.0
  0
SEQEND
  5
534
100
AcDbEntity
  8
0
  0
POLYLINE
  5
535
100
AcDbEntity
  8
0
 62
     7
100
AcDb2dPolyline
 66
     1
 10
0.0
 20
0.0
 30
0.0
 71
     6
  0
VERTEX
  5
536
100
AcDbEntity
  8
0
100
AcDbVertex
100
AcDb2dVertex
 10
4312.471191
 20
3076.009521
 30
0.0
  0
VERTEX
  5
537
100
AcDbEntity
  8
0
100
AcDbVertex
100
AcDb2dVertex
 10
4305.804688
 20
3080.722656
 30
0.0
  0
VERTEX
  5
538
100
AcDbEntity
  8
0
100
AcDbVertex
100
AcDb2dVertex
 10
4299.138184
 20
3080.722656
 30
0.0
  0
VERTEX
  5
539
100
AcDbEntity
  8
0
100
AcDbVertex
100
AcDb2dVertex
 10
4292.471191
 20
3076.009521
 30
0.0
  0
VERTEX
  5
53A
100
AcDbEntity
  8
0
100
AcDbVertex
100
AcDb2dVertex
 10
4292.471191
 20
3059.512695
 30
0.0
  0
VERTEX
  5
53B
100
AcDbEntity
  8
0
100
AcDbVertex
100
AcDb2dVertex
 10
4299.138184
 20
3054.799561
 30
0.0
  0
SEQEND
  5
53C
100
AcDbEntity
  8
0
  0
LINE
  5
53D
100
AcDbEntity
  8
0
 62
     7
100
AcDbLine
 10
4193.084961
 20
2476.232422
 30
0.0
 11
4369.138184
 21
2476.232422
 31
0.0
210
0.0
220
0.0
230
1.0
  0
LINE
  5
53E
100
AcDbEntity
  8
0
 62
     7
100
AcDbLine
 10
4250.976074
 20
3556.232666
 30
0.0
 11
4369.138184
 21
3556.232666
 31
0.0
210
0.0
220
0.0
230
1.0
  0
POLYLINE
  5
53F
100
AcDbEntity
  8
0
 62
     7
100
AcDb2dPolyline
 66
     1
 10
0.0
 20
0.0
 30
0.0
 71
     3
  0
VERTEX
  5
540
100
AcDbEntity
  8
0
100
AcDbVertex
100
AcDb2dVertex
 10
4359.490723
 20
3517.595459
 30
0.0
  0
VERTEX
  5
541
100
AcDbEntity
  8
0
100
AcDbVertex
100
AcDb2dVertex
 10
4349.138184
 20
3556.232666
 30
0.0
  0
VERTEX
  5
542
100
AcDbEntity
  8
0
100
AcDbVertex
100
AcDb2dVertex
 10
4338.785156
 20
3517.595459
 30
0.0
  0
SEQEND
  5
543
100
AcDbEntity
  8
0
  0
POLYLINE
  5
544
100
AcDbEntity
  8
0
 62
     7
100
AcDb2dPolyline
 66
     1
 10
0.0
 20
0.0
 30
0.0
 71
     3
  0
VERTEX
  5
545
100
AcDbEntity
  8
0
100
AcDbVertex
100
AcDb2dVertex
 10
4338.785156
 20
2514.869629
 30
0.0
  0
VERTEX
  5
546
100
AcDbEntity
  8
0
100
AcDbVertex
100
AcDb2dVertex
 10
4349.138184
 20
2476.232422
 30
0.0
  0
VERTEX
  5
547
100
AcDbEntity
  8
0
100
AcDbVertex
100
AcDb2dVertex
 10
4359.490723
 20
2514.869629
 30
0.0
  0
SEQEND
  5
548
100
AcDbEntity
  8
0
  0
LINE
  5
549
100
AcDbEntity
  8
0
 62
     7
100
AcDbLine
 10
4349.138184
 20
2476.232422
 30
0.0
 11
4349.138184
 21
3556.232666
 31
0.0
210
0.0
220
0.0
230
1.0
  0
LINE
  5
54A
100
AcDbEntity
  8
0
 62
     7
 48
0.471338
100
AcDbLine
 10
1703.96167
 20
2962.456055
 30
0.0
 11
1703.96167
 21
2981.30957
 31
0.0
210
0.0
220
0.0
230
1.0
  0
POLYLINE
  5
54B
100
AcDbEntity
  8
0
 62
     7
100
AcDb2dPolyline
 66
     1
 10
0.0
 20
0.0
 30
0.0
 71
     3
  0
VERTEX
  5
54C
100
AcDbEntity
  8
0
100
AcDbVertex
100
AcDb2dVertex
 10
1703.96167
 20
2971.882568
 30
0.0
  0
VERTEX
  5
54D
100
AcDbEntity
  8
0
100
AcDbVertex
100
AcDb2dVertex
 10
1660.628418
 20
2971.882568
 30
0.0
  0
VERTEX
  5
54E
100
AcDbEntity
  8
0
100
AcDbVertex
100
AcDb2dVertex
 10
1673.96167
 20
2960.099121
 30
0.0
  0
SEQEND
  5
54F
100
AcDbEntity
  8
0
  0
POLYLINE
  5
550
100
AcDbEntity
  8
0
 62
     7
100
AcDb2dPolyline
 66
     1
 10
0.0
 20
0.0
 30
0.0
 70
     1
 71
     8
  0
VERTEX
  5
551
100
AcDbEntity
  8
0
100
AcDbVertex
100
AcDb2dVertex
 10
1693.96167
 20
2991.30957
 30
0.0
  0
VERTEX
  5
552
100
AcDbEntity
  8
0
100
AcDbVertex
100
AcDb2dVertex
 10
1703.96167
 20
2998.37915
 30
0.0
  0
VERTEX
  5
553
100
AcDbEntity
  8
0
100
AcDbVertex
100
AcDb2dVertex
 10
1703.96167
 20
3010.162598
 30
0.0
  0
VERTEX
  5
554
100
AcDbEntity
  8
0
100
AcDbVertex
100
AcDb2dVertex
 10
1693.96167
 20
3017.232666
 30
0.0
  0
VERTEX
  5
555
100
AcDbEntity
  8
0
100
AcDbVertex
100
AcDb2dVertex
 10
1670.628418
 20
3017.232666
 30
0.0
  0
VERTEX
  5
556
100
AcDbEntity
  8
0
100
AcDbVertex
100
AcDb2dVertex
 10
1660.628418
 20
3010.162598
 30
0.0
  0
VERTEX
  5
557
100
AcDbEntity
  8
0
100
AcDbVertex
100
AcDb2dVertex
 10
1660.628418
 20
2998.37915
 30
0.0
  0
VERTEX
  5
558
100
AcDbEntity
  8
0
100
AcDbVertex
100
AcDb2dVertex
 10
1670.628418
 20
2991.30957
 30
0.0
  0
SEQEND
  5
559
100
AcDbEntity
  8
0
  0
POLYLINE
  5
55A
100
AcDbEntity
  8
0
 62
     7
100
AcDb2dPolyline
 66
     1
 10
0.0
 20
0.0
 30
0.0
 71
     6
  0
VERTEX
  5
55B
100
AcDbEntity
  8
0
100
AcDbVertex
100
AcDb2dVertex
 10
1703.96167
 20
3041.372559
 30
0.0
  0
VERTEX
  5
55C
100
AcDbEntity
  8
0
100
AcDbVertex
100
AcDb2dVertex
 10
1683.96167
 20
3041.372559
 30
0.0
  0
VERTEX
  5
55D
100
AcDbEntity
  8
0
100
AcDbVertex
100
AcDb2dVertex
 10
1667.295044
 20
3053.156006
 30
0.0
  0
VERTEX
  5
55E
100
AcDbEntity
  8
0
100
AcDbVertex
100
AcDb2dVertex
 10
1660.628418
 20
3053.156006
 30
0.0
  0
VERTEX
  5
55F
100
AcDbEntity
  8
0
100
AcDbVertex
100
AcDb2dVertex
 10
1660.628418
 20
3027.232666
 30
0.0
  0
VERTEX
  5
560
100
AcDbEntity
  8
0
100
AcDbVertex
100
AcDb2dVertex
 10
1670.628418
 20
3027.232666
 30
0.0
  0
SEQEND
  5
561
100
AcDbEntity
  8
0
  0
LINE
  5
562
100
AcDbEntity
  8
0
 62
     7
 48
0.471338
100
AcDbLine
 10
1703.96167
 20
3065.512695
 30
0.0
 11
1703.96167
 21
3084.366211
 31
0.0
210
0.0
220
0.0
230
1.0
  0
POLYLINE
  5
563
100
AcDbEntity
  8
0
 62
     7
100
AcDb2dPolyline
 66
     1
 10
0.0
 20
0.0
 30
0.0
 71
     3
  0
VERTEX
  5
564
100
AcDbEntity
  8
0
100
AcDbVertex
100
AcDb2dVertex
 10
1703.96167
 20
3074.939209
 30
0.0
  0
VERTEX
  5
565
100
AcDbEntity
  8
0
100
AcDbVertex
100
AcDb2dVertex
 10
1660.628418
 20
3074.939209
 30
0.0
  0
VERTEX
  5
566
100
AcDbEntity
  8
0
100
AcDbVertex
100
AcDb2dVertex
 10
1673.96167
 20
3063.156006
 30
0.0
  0
SEQEND
  5
567
100
AcDbEntity
  8
0
  0
LINE
  5
568
100
AcDbEntity
  8
0
 62
     7
100
AcDbLine
 10
1790.953247
 20
2488.232422
 30
0.0
 11
1697.295044
 21
2488.232422
 31
0.0
210
0.0
220
0.0
230
1.0
  0
LINE
  5
569
100
AcDbEntity
  8
0
 62
     7
100
AcDbLine
 10
1790.953247
 20
3556.232666
 30
0.0
 11
1697.295044
 21
3556.232666
 31
0.0
210
0.0
220
0.0
230
1.0
  0
POLYLINE
  5
56A
100
AcDbEntity
  8
0
 62
     7
100
AcDb2dPolyline
 66
     1
 10
0.0
 20
0.0
 30
0.0
 71
     3
  0
VERTEX
  5
56B
100
AcDbEntity
  8
0
100
AcDbVertex
100
AcDb2dVertex
 10
1727.647583
 20
3517.595459
 30
0.0
  0
VERTEX
  5
56C
100
AcDbEntity
  8
0
100
AcDbVertex
100
AcDb2dVertex
 10
1717.2948
 20
3556.232666
 30
0.0
  0
VERTEX
  5
56D
100
AcDbEntity
  8
0
100
AcDbVertex
100
AcDb2dVertex
 10
1706.942261
 20
3517.595459
 30
0.0
  0
SEQEND
  5
56E
100
AcDbEntity
  8
0
  0
POLYLINE
  5
56F
100
AcDbEntity
  8
0
 62
     7
100
AcDb2dPolyline
 66
     1
 10
0.0
 20
0.0
 30
0.0
 71
     3
  0
VERTEX
  5
570
100
AcDbEntity
  8
0
100
AcDbVertex
100
AcDb2dVertex
 10
1706.942261
 20
2526.869629
 30
0.0
  0
VERTEX
  5
571
100
AcDbEntity
  8
0
100
AcDbVertex
100
AcDb2dVertex
 10
1717.2948
 20
2488.232422
 30
0.0
  0
VERTEX
  5
572
100
AcDbEntity
  8
0
100
AcDbVertex
100
AcDb2dVertex
 10
1727.647583
 20
2526.869629
 30
0.0
  0
SEQEND
  5
573
100
AcDbEntity
  8
0
  0
LINE
  5
574
100
AcDbEntity
  8
0
 62
     7
100
AcDbLine
 10
1717.2948
 20
2488.232422
 30
0.0
 11
1717.2948
 21
3556.232666
 31
0.0
210
0.0
220
0.0
230
1.0
  0
POLYLINE
  5
575
100
AcDbEntity
  8
0
 62
     7
100
AcDb2dPolyline
 66
     1
 10
0.0
 20
0.0
 30
0.0
 71
    10
  0
VERTEX
  5
576
100
AcDbEntity
  8
0
100
AcDbVertex
100
AcDb2dVertex
 10
2951.76123
 20
3763.609863
 30
0.0
  0
VERTEX
  5
577
100
AcDbEntity
  8
0
100
AcDbVertex
100
AcDb2dVertex
 10
2956.474609
 20
3770.276611
 30
0.0
  0
VERTEX
  5
578
100
AcDbEntity
  8
0
100
AcDbVertex
100
AcDb2dVertex
 10
2970.614502
 20
3770.276611
 30
0.0
  0
VERTEX
  5
579
100
AcDbEntity
  8
0
100
AcDbVertex
100
AcDb2dVertex
 10
2975.328125
 20
3763.609863
 30
0.0
  0
VERTEX
  5
57A
100
AcDbEntity
  8
0
100
AcDbVertex
100
AcDb2dVertex
 10
2975.328125
 20
3753.609863
 30
0.0
  0
VERTEX
  5
57B
100
AcDbEntity
  8
0
100
AcDbVertex
100
AcDb2dVertex
 10
2970.614502
 20
3746.943115
 30
0.0
  0
VERTEX
  5
57C
100
AcDbEntity
  8
0
100
AcDbVertex
100
AcDb2dVertex
 10
2961.187988
 20
3746.943115
 30
0.0
  0
VERTEX
  5
57D
100
AcDbEntity
  8
0
100
AcDbVertex
100
AcDb2dVertex
 10
2951.76123
 20
3733.609863
 30
0.0
  0
VERTEX
  5
57E
100
AcDbEntity
  8
0
100
AcDbVertex
100
AcDb2dVertex
 10
2951.76123
 20
3726.943115
 30
0.0
  0
VERTEX
  5
57F
100
AcDbEntity
  8
0
100
AcDbVertex
100
AcDb2dVertex
 10
2977.68457
 20
3726.943115
 30
0.0
  0
SEQEND
  5
580
100
AcDbEntity
  8
0
  0
POLYLINE
  5
581
100
AcDbEntity
  8
0
 62
     7
100
AcDb2dPolyline
 66
     1
 10
0.0
 20
0.0
 30
0.0
 71
     6
  0
VERTEX
  5
582
100
AcDbEntity
  8
0
100
AcDbVertex
100
AcDb2dVertex
 10
3011.251221
 20
3726.943115
 30
0.0
  0
VERTEX
  5
583
100
AcDbEntity
  8
0
100
AcDbVertex
100
AcDb2dVertex
 10
3011.251221
 20
3770.276611
 30
0.0
  0
VERTEX
  5
584
100
AcDbEntity
  8
0
100
AcDbVertex
100
AcDb2dVertex
 10
3006.538086
 20
3770.276611
 30
0.0
  0
VERTEX
  5
585
100
AcDbEntity
  8
0
100
AcDbVertex
100
AcDb2dVertex
 10
2987.68457
 20
3743.609863
 30
0.0
  0
VERTEX
  5
586
100
AcDbEntity
  8
0
100
AcDbVertex
100
AcDb2dVertex
 10
2987.68457
 20
3736.943115
 30
0.0
  0
VERTEX
  5
587
100
AcDbEntity
  8
0
100
AcDbVertex
100
AcDb2dVertex
 10
3015.9646
 20
3736.943115
 30
0.0
  0
SEQEND
  5
588
100
AcDbEntity
  8
0
  0
POLYLINE
  5
589
100
AcDbEntity
  8
0
 62
     7
100
AcDb2dPolyline
 66
     1
 10
0.0
 20
0.0
 30
0.0
 71
     6
  0
VERTEX
  5
58A
100
AcDbEntity
  8
0
100
AcDbVertex
100
AcDb2dVertex
 10
3049.53125
 20
3726.943115
 30
0.0
  0
VERTEX
  5
58B
100
AcDbEntity
  8
0
100
AcDbVertex
100
AcDb2dVertex
 10
3049.53125
 20
3770.276611
 30
0.0
  0
VERTEX
  5
58C
100
AcDbEntity
  8
0
100
AcDbVertex
100
AcDb2dVertex
 10
3044.817871
 20
3770.276611
 30
0.0
  0
VERTEX
  5
58D
100
AcDbEntity
  8
0
100
AcDbVertex
100
AcDb2dVertex
 10
3025.9646
 20
3743.609863
 30
0.0
  0
VERTEX
  5
58E
100
AcDbEntity
  8
0
100
AcDbVertex
100
AcDb2dVertex
 10
3025.9646
 20
3736.943115
 30
0.0
  0
VERTEX
  5
58F
100
AcDbEntity
  8
0
100
AcDbVertex
100
AcDb2dVertex
 10
3054.244629
 20
3736.943115
 30
0.0
  0
SEQEND
  5
590
100
AcDbEntity
  8
0
  0
POLYLINE
  5
591
100
AcDbEntity
  8
0
 62
     7
100
AcDb2dPolyline
 66
     1
 10
0.0
 20
0.0
 30
0.0
 71
     7
  0
VERTEX
  5
592
100
AcDbEntity
  8
0
100
AcDbVertex
100
AcDb2dVertex
 10
3064.244629
 20
3733.609863
 30
0.0
  0
VERTEX
  5
593
100
AcDbEntity
  8
0
100
AcDbVertex
100
AcDb2dVertex
 10
3068.957764
 20
3726.943115
 30
0.0
  0
VERTEX
  5
594
100
AcDbEntity
  8
0
100
AcDbVertex
100
AcDb2dVertex
 10
3085.45459
 20
3726.943115
 30
0.0
  0
VERTEX
  5
595
100
AcDbEntity
  8
0
100
AcDbVertex
100
AcDb2dVertex
 10
3090.167725
 20
3733.609863
 30
0.0
  0
VERTEX
  5
596
100
AcDbEntity
  8
0
100
AcDbVertex
100
AcDb2dVertex
 10
3090.167725
 20
3743.609863
 30
0.0
  0
VERTEX
  5
597
100
AcDbEntity
  8
0
100
AcDbVertex
100
AcDb2dVertex
 10
3085.45459
 20
3750.276611
 30
0.0
  0
VERTEX
  5
598
100
AcDbEntity
  8
0
100
AcDbVertex
100
AcDb2dVertex
 10
3073.671143
 20
3750.276611
 30
0.0
  0
SEQEND
  5
599
100
AcDbEntity
  8
0
  0
POLYLINE
  5
59A
100
AcDbEntity
  8
0
 62
     7
100
AcDb2dPolyline
 66
     1
 10
0.0
 20
0.0
 30
0.0
 71
     6
  0
VERTEX
  5
59B
100
AcDbEntity
  8
0
100
AcDbVertex
100
AcDb2dVertex
 10
3085.45459
 20
3750.276611
 30
0.0
  0
VERTEX
  5
59C
100
AcDbEntity
  8
0
100
AcDbVertex
100
AcDb2dVertex
 10
3090.167725
 20
3756.943115
 30
0.0
  0
VERTEX
  5
59D
100
AcDbEntity
  8
0
100
AcDbVertex
100
AcDb2dVertex
 10
3090.167725
 20
3763.609863
 30
0.0
  0
VERTEX
  5
59E
100
AcDbEntity
  8
0
100
AcDbVertex
100
AcDb2dVertex
 10
3085.45459
 20
3770.276611
 30
0.0
  0
VERTEX
  5
59F
100
AcDbEntity
  8
0
100
AcDbVertex
100
AcDb2dVertex
 10
3068.957764
 20
3770.276611
 30
0.0
  0
VERTEX
  5
5A0
100
AcDbEntity
  8
0
100
AcDbVertex
100
AcDb2dVertex
 10
3064.244629
 20
3763.609863
 30
0.0
  0
SEQEND
  5
5A1
100
AcDbEntity
  8
0
  0
LINE
  5
5A2
100
AcDbEntity
  8
0
 62
     7
100
AcDbLine
 10
1800.964478
 20
3574.328857
 30
0.0
 11
1800.964478
 21
3733.609863
 31
0.0
210
0.0
220
0.0
230
1.0
  0
LINE
  5
5A3
100
AcDbEntity
  8
0
 62
     7
100
AcDbLine
 10
4240.964844
 20
3574.328857
 30
0.0
 11
4240.964844
 21
3733.609863
 31
0.0
210
0.0
220
0.0
230
1.0
  0
POLYLINE
  5
5A4
100
AcDbEntity
  8
0
 62
     7
100
AcDb2dPolyline
 66
     1
 10
0.0
 20
0.0
 30
0.0
 71
     3
  0
VERTEX
  5
5A5
100
AcDbEntity
  8
0
100
AcDbVertex
100
AcDb2dVertex
 10
4202.327637
 20
3703.25708
 30
0.0
  0
VERTEX
  5
5A6
100
AcDbEntity
  8
0
100
AcDbVertex
100
AcDb2dVertex
 10
4240.964844
 20
3713.609863
 30
0.0
  0
VERTEX
  5
5A7
100
AcDbEntity
  8
0
100
AcDbVertex
100
AcDb2dVertex
 10
4202.327637
 20
3723.962646
 30
0.0
  0
SEQEND
  5
5A8
100
AcDbEntity
  8
0
  0
POLYLINE
  5
5A9
100
AcDbEntity
  8
0
 62
     7
100
AcDb2dPolyline
 66
     1
 10
0.0
 20
0.0
 30
0.0
 71
     3
  0
VERTEX
  5
5AA
100
AcDbEntity
  8
0
100
AcDbVertex
100
AcDb2dVertex
 10
1839.601318
 20
3723.962646
 30
0.0
  0
VERTEX
  5
5AB
100
AcDbEntity
  8
0
100
AcDbVertex
100
AcDb2dVertex
 10
1800.964478
 20
3713.609863
 30
0.0
  0
VERTEX
  5
5AC
100
AcDbEntity
  8
0
100
AcDbVertex
100
AcDb2dVertex
 10
1839.601318
 20
3703.25708
 30
0.0
  0
SEQEND
  5
5AD
100
AcDbEntity
  8
0
  0
LINE
  5
5AE
100
AcDbEntity
  8
0
 62
     7
100
AcDbLine
 10
1800.964478
 20
3713.609863
 30
0.0
 11
4240.964844
 21
3713.609863
 31
0.0
210
0.0
220
0.0
230
1.0
  0
POLYLINE
  5
5AF
100
AcDbEntity
  8
0
 62
     7
100
AcDb2dPolyline
 66
     1
 10
0.0
 20
0.0
 30
0.0
 71
     8
  0
VERTEX
  5
5B0
100
AcDbEntity
  8
0
100
AcDbVertex
100
AcDb2dVertex
 10
686.749023
 20
321.322754
 30
0.0
  0
VERTEX
  5
5B1
100
AcDbEntity
  8
0
100
AcDbVertex
100
AcDb2dVertex
 10
674.022949
 20
303.322723
 30
0.0
  0
VERTEX
  5
5B2
100
AcDbEntity
  8
0
100
AcDbVertex
100
AcDb2dVertex
 10
644.328979
 20
303.322723
 30
0.0
  0
VERTEX
  5
5B3
100
AcDbEntity
  8
0
100
AcDbVertex
100
AcDb2dVertex
 10
631.602966
 20
321.322754
 30
0.0
  0
VERTEX
  5
5B4
100
AcDbEntity
  8
0
100
AcDbVertex
100
AcDb2dVertex
 10
631.602966
 20
363.322723
 30
0.0
  0
VERTEX
  5
5B5
100
AcDbEntity
  8
0
100
AcDbVertex
100
AcDb2dVertex
 10
644.328979
 20
381.322754
 30
0.0
  0
VERTEX
  5
5B6
100
AcDbEntity
  8
0
100
AcDbVertex
100
AcDb2dVertex
 10
674.022949
 20
381.322754
 30
0.0
  0
VERTEX
  5
5B7
100
AcDbEntity
  8
0
100
AcDbVertex
100
AcDb2dVertex
 10
686.749023
 20
363.322723
 30
0.0
  0
SEQEND
  5
5B8
100
AcDbEntity
  8
0
  0
POLYLINE
  5
5B9
100
AcDbEntity
  8
0
 62
     7
100
AcDb2dPolyline
 66
     1
 10
0.0
 20
0.0
 30
0.0
 70
     1
 71
     8
  0
VERTEX
  5
5BA
100
AcDbEntity
  8
0
100
AcDbVertex
100
AcDb2dVertex
 10
704.748962
 20
321.322754
 30
0.0
  0
VERTEX
  5
5BB
100
AcDbEntity
  8
0
100
AcDbVertex
100
AcDb2dVertex
 10
704.748962
 20
351.322754
 30
0.0
  0
VERTEX
  5
5BC
100
AcDbEntity
  8
0
100
AcDbVertex
100
AcDb2dVertex
 10
717.475037
 20
369.322723
 30
0.0
  0
VERTEX
  5
5BD
100
AcDbEntity
  8
0
100
AcDbVertex
100
AcDb2dVertex
 10
738.684998
 20
369.322723
 30
0.0
  0
VERTEX
  5
5BE
100
AcDbEntity
  8
0
100
AcDbVertex
100
AcDb2dVertex
 10
751.411072
 20
351.322754
 30
0.0
  0
VERTEX
  5
5BF
100
AcDbEntity
  8
0
100
AcDbVertex
100
AcDb2dVertex
 10
751.411072
 20
321.322754
 30
0.0
  0
VERTEX
  5
5C0
100
AcDbEntity
  8
0
100
AcDbVertex
100
AcDb2dVertex
 10
738.684998
 20
303.322723
 30
0.0
  0
VERTEX
  5
5C1
100
AcDbEntity
  8
0
100
AcDbVertex
100
AcDb2dVertex
 10
717.475037
 20
303.322723
 30
0.0
  0
SEQEND
  5
5C2
100
AcDbEntity
  8
0
  0
LINE
  5
5C3
100
AcDbEntity
  8
0
 62
     7
100
AcDbLine
 10
769.411011
 20
297.322723
 30
0.0
 11
769.411011
 21
369.322723
 31
0.0
210
0.0
220
0.0
230
1.0
  0
POLYLINE
  5
5C4
100
AcDbEntity
  8
0
 62
     7
100
AcDb2dPolyline
 66
     1
 10
0.0
 20
0.0
 30
0.0
 71
     8
  0
VERTEX
  5
5C5
100
AcDbEntity
  8
0
100
AcDbVertex
100
AcDb2dVertex
 10
769.411011
 20
351.322754
 30
0.0
  0
VERTEX
  5
5C6
100
AcDbEntity
  8
0
100
AcDbVertex
100
AcDb2dVertex
 10
782.136963
 20
369.322723
 30
0.0
  0
VERTEX
  5
5C7
100
AcDbEntity
  8
0
100
AcDbVertex
100
AcDb2dVertex
 10
803.347046
 20
369.322723
 30
0.0
  0
VERTEX
  5
5C8
100
AcDbEntity
  8
0
100
AcDbVertex
100
AcDb2dVertex
 10
816.072998
 20
351.322754
 30
0.0
  0
VERTEX
  5
5C9
100
AcDbEntity
  8
0
100
AcDbVertex
100
AcDb2dVertex
 10
816.072998
 20
327.322723
 30
0.0
  0
VERTEX
  5
5CA
100
AcDbEntity
  8
0
100
AcDbVertex
100
AcDb2dVertex
 10
803.347046
 20
309.322723
 30
0.0
  0
VERTEX
  5
5CB
100
AcDbEntity
  8
0
100
AcDbVertex
100
AcDb2dVertex
 10
782.136963
 20
309.322723
 30
0.0
  0
VERTEX
  5
5CC
100
AcDbEntity
  8
0
100
AcDbVertex
100
AcDb2dVertex
 10
769.411011
 20
327.322723
 30
0.0
  0
SEQEND
  5
5CD
100
AcDbEntity
  8
0
  0
POLYLINE
  5
5CE
100
AcDbEntity
  8
0
 62
     7
100
AcDb2dPolyline
 66
     1
 10
0.0
 20
0.0
 30
0.0
 71
     4
  0
VERTEX
  5
5CF
100
AcDbEntity
  8
0
100
AcDbVertex
100
AcDb2dVertex
 10
838.315063
 20
297.322723
 30
0.0
  0
VERTEX
  5
5D0
100
AcDbEntity
  8
0
100
AcDbVertex
100
AcDb2dVertex
 10
846.799011
 20
297.322723
 30
0.0
  0
VERTEX
  5
5D1
100
AcDbEntity
  8
0
100
AcDbVertex
100
AcDb2dVertex
 10
863.767029
 20
321.322754
 30
0.0
  0
VERTEX
  5
5D2
100
AcDbEntity
  8
0
100
AcDbVertex
100
AcDb2dVertex
 10
880.735046
 20
369.322723
 30
0.0
  0
SEQEND
  5
5D3
100
AcDbEntity
  8
0
  0
LINE
  5
5D4
100
AcDbEntity
  8
0
 62
     7
100
AcDbLine
 10
834.073059
 20
369.322723
 30
0.0
 11
855.282959
 21
309.322723
 31
0.0
210
0.0
220
0.0
230
1.0
  0
LINE
  5
5D5
100
AcDbEntity
  8
0
 62
     7
100
AcDbLine
 10
898.734985
 20
303.322723
 30
0.0
 11
898.734985
 21
369.322723
 31
0.0
210
0.0
220
0.0
230
1.0
  0
POLYLINE
  5
5D6
100
AcDbEntity
  8
0
 62
     7
100
AcDb2dPolyline
 66
     1
 10
0.0
 20
0.0
 30
0.0
 71
     3
  0
VERTEX
  5
5D7
100
AcDbEntity
  8
0
100
AcDbVertex
100
AcDb2dVertex
 10
898.734985
 20
351.322754
 30
0.0
  0
VERTEX
  5
5D8
100
AcDbEntity
  8
0
100
AcDbVertex
100
AcDb2dVertex
 10
911.46106
 20
369.322723
 30
0.0
  0
VERTEX
  5
5D9
100
AcDbEntity
  8
0
100
AcDbVertex
100
AcDb2dVertex
 10
928.429016
 20
369.322723
 30
0.0
  0
SEQEND
  5
5DA
100
AcDbEntity
  8
0
  0
LINE
  5
5DB
100
AcDbEntity
  8
0
 62
     7
100
AcDbLine
 10
946.429016
 20
303.322723
 30
0.0
 11
946.429016
 21
363.322723
 31
0.0
210
0.0
220
0.0
230
1.0
  0
LINE
  5
5DC
100
AcDbEntity
  8
0
 62
     7
 48
0.3
100
AcDbLine
 10
946.429016
 20
375.322723
 30
0.0
 11
946.429016
 21
387.322723
 31
0.0
210
0.0
220
0.0
230
1.0
  0
POLYLINE
  5
5DD
100
AcDbEntity
  8
0
 62
     7
100
AcDb2dPolyline
 66
     1
 10
0.0
 20
0.0
 30
0.0
 71
     4
  0
VERTEX
  5
5DE
100
AcDbEntity
  8
0
100
AcDbVertex
100
AcDb2dVertex
 10
977.155029
 20
297.322723
 30
0.0
  0
VERTEX
  5
5DF
100
AcDbEntity
  8
0
100
AcDbVertex
100
AcDb2dVertex
 10
1002.607056
 20
297.322723
 30
0.0
  0
VERTEX
  5
5E0
100
AcDbEntity
  8
0
100
AcDbVertex
100
AcDb2dVertex
 10
1011.091003
 20
309.322723
 30
0.0
  0
VERTEX
  5
5E1
100
AcDbEntity
  8
0
100
AcDbVertex
100
AcDb2dVertex
 10
1011.091003
 20
369.322723
 30
0.0
  0
SEQEND
  5
5E2
100
AcDbEntity
  8
0
  0
POLYLINE
  5
5E3
100
AcDbEntity
  8
0
 62
     7
100
AcDb2dPolyline
 66
     1
 10
0.0
 20
0.0
 30
0.0
 71
     8
  0
VERTEX
  5
5E4
100
AcDbEntity
  8
0
100
AcDbVertex
100
AcDb2dVertex
 10
1011.091003
 20
351.322754
 30
0.0
  0
VERTEX
  5
5E5
100
AcDbEntity
  8
0
100
AcDbVertex
100
AcDb2dVertex
 10
998.365051
 20
369.322723
 30
0.0
  0
VERTEX
  5
5E6
100
AcDbEntity
  8
0
100
AcDbVertex
100
AcDb2dVertex
 10
977.155029
 20
369.322723
 30
0.0
  0
VERTEX
  5
5E7
100
AcDbEntity
  8
0
100
AcDbVertex
100
AcDb2dVertex
 10
964.429016
 20
351.322754
 30
0.0
  0
VERTEX
  5
5E8
100
AcDbEntity
  8
0
100
AcDbVertex
100
AcDb2dVertex
 10
964.429016
 20
333.322723
 30
0.0
  0
VERTEX
  5
5E9
100
AcDbEntity
  8
0
100
AcDbVertex
100
AcDb2dVertex
 10
977.155029
 20
315.322723
 30
0.0
  0
VERTEX
  5
5EA
100
AcDbEntity
  8
0
100
AcDbVertex
100
AcDb2dVertex
 10
998.365051
 20
315.322723
 30
0.0
  0
VERTEX
  5
5EB
100
AcDbEntity
  8
0
100
AcDbVertex
100
AcDb2dVertex
 10
1011.091003
 20
333.322723
 30
0.0
  0
SEQEND
  5
5EC
100
AcDbEntity
  8
0
  0
LINE
  5
5ED
100
AcDbEntity
  8
0
 62
     7
100
AcDbLine
 10
1029.091064
 20
303.322723
 30
0.0
 11
1029.091064
 21
387.322723
 31
0.0
210
0.0
220
0.0
230
1.0
  0
POLYLINE
  5
5EE
100
AcDbEntity
  8
0
 62
     7
100
AcDb2dPolyline
 66
     1
 10
0.0
 20
0.0
 30
0.0
 71
     5
  0
VERTEX
  5
5EF
100
AcDbEntity
  8
0
100
AcDbVertex
100
AcDb2dVertex
 10
1029.091064
 20
351.322754
 30
0.0
  0
VERTEX
  5
5F0
100
AcDbEntity
  8
0
100
AcDbVertex
100
AcDb2dVertex
 10
1041.817017
 20
369.322723
 30
0.0
  0
VERTEX
  5
5F1
100
AcDbEntity
  8
0
100
AcDbVertex
100
AcDb2dVertex
 10
1063.0271
 20
369.322723
 30
0.0
  0
VERTEX
  5
5F2
100
AcDbEntity
  8
0
100
AcDbVertex
100
AcDb2dVertex
 10
1075.753052
 20
351.322754
 30
0.0
  0
VERTEX
  5
5F3
100
AcDbEntity
  8
0
100
AcDbVertex
100
AcDb2dVertex
 10
1075.753052
 20
303.322723
 30
0.0
  0
SEQEND
  5
5F4
100
AcDbEntity
  8
0
  0
POLYLINE
  5
5F5
100
AcDbEntity
  8
0
 62
     7
100
AcDb2dPolyline
 66
     1
 10
0.0
 20
0.0
 30
0.0
 71
     5
  0
VERTEX
  5
5F6
100
AcDbEntity
  8
0
100
AcDbVertex
100
AcDb2dVertex
 10
1131.931152
 20
315.322723
 30
0.0
  0
VERTEX
  5
5F7
100
AcDbEntity
  8
0
100
AcDbVertex
100
AcDb2dVertex
 10
1123.447021
 20
303.322723
 30
0.0
  0
VERTEX
  5
5F8
100
AcDbEntity
  8
0
100
AcDbVertex
100
AcDb2dVertex
 10
1114.963013
 20
303.322723
 30
0.0
  0
VERTEX
  5
5F9
100
AcDbEntity
  8
0
100
AcDbVertex
100
AcDb2dVertex
 10
1106.479004
 20
315.322723
 30
0.0
  0
VERTEX
  5
5FA
100
AcDbEntity
  8
0
100
AcDbVertex
100
AcDb2dVertex
 10
1106.479004
 20
387.322723
 30
0.0
  0
SEQEND
  5
5FB
100
AcDbEntity
  8
0
  0
LINE
  5
5FC
100
AcDbEntity
  8
0
 62
     7
100
AcDbLine
 10
1093.753052
 20
369.322723
 30
0.0
 11
1131.931152
 21
369.322723
 31
0.0
210
0.0
220
0.0
230
1.0
  0
POLYLINE
  5
5FD
100
AcDbEntity
  8
0
 62
     7
100
AcDb2dPolyline
 66
     1
 10
0.0
 20
0.0
 30
0.0
 71
    19
  0
VERTEX
  5
5FE
100
AcDbEntity
  8
0
100
AcDbVertex
100
AcDb2dVertex
 10
1250.650024
 20
303.322723
 30
0.0
  0
VERTEX
  5
5FF
100
AcDbEntity
  8
0
100
AcDbVertex
100
AcDb2dVertex
 10
1220.956055
 20
303.322723
 30
0.0
  0
VERTEX
  5
600
100
AcDbEntity
  8
0
100
AcDbVertex
100
AcDb2dVertex
 10
1208.230103
 20
321.322754
 30
0.0
  0
VERTEX
  5
601
100
AcDbEntity
  8
0
100
AcDbVertex
100
AcDb2dVertex
 10
1208.230103
 20
363.322723
 30
0.0
  0
VERTEX
  5
602
100
AcDbEntity
  8
0
100
AcDbVertex
100
AcDb2dVertex
 10
1220.956055
 20
381.322754
 30
0.0
  0
VERTEX
  5
603
100
AcDbEntity
  8
0
100
AcDbVertex
100
AcDb2dVertex
 10
1250.650024
 20
381.322754
 30
0.0
  0
VERTEX
  5
604
100
AcDbEntity
  8
0
100
AcDbVertex
100
AcDb2dVertex
 10
1263.376099
 20
363.322723
 30
0.0
  0
VERTEX
  5
605
100
AcDbEntity
  8
0
100
AcDbVertex
100
AcDb2dVertex
 10
1263.376099
 20
321.322754
 30
0.0
  0
VERTEX
  5
606
100
AcDbEntity
  8
0
100
AcDbVertex
100
AcDb2dVertex
 10
1259.134033
 20
315.322723
 30
0.0
  0
VERTEX
  5
607
100
AcDbEntity
  8
0
100
AcDbVertex
100
AcDb2dVertex
 10
1250.650024
 20
315.322723
 30
0.0
  0
VERTEX
  5
608
100
AcDbEntity
  8
0
100
AcDbVertex
100
AcDb2dVertex
 10
1246.408081
 20
321.322754
 30
0.0
  0
VERTEX
  5
609
100
AcDbEntity
  8
0
100
AcDbVertex
100
AcDb2dVertex
 10
1246.408081
 20
351.322754
 30
0.0
  0
VERTEX
  5
60A
100
AcDbEntity
  8
0
100
AcDbVertex
100
AcDb2dVertex
 10
1242.166138
 20
357.322723
 30
0.0
  0
VERTEX
  5
60B
100
AcDbEntity
  8
0
100
AcDbVertex
100
AcDb2dVertex
 10
1233.682007
 20
357.322723
 30
0.0
  0
VERTEX
  5
60C
100
AcDbEntity
  8
0
100
AcDbVertex
100
AcDb2dVertex
 10
1220.956055
 20
339.322723
 30
0.0
  0
VERTEX
  5
60D
100
AcDbEntity
  8
0
100
AcDbVertex
100
AcDb2dVertex
 10
1220.956055
 20
327.322723
 30
0.0
  0
VERTEX
  5
60E
100
AcDbEntity
  8
0
100
AcDbVertex
100
AcDb2dVertex
 10
1225.197998
 20
321.322754
 30
0.0
  0
VERTEX
  5
60F
100
AcDbEntity
  8
0
100
AcDbVertex
100
AcDb2dVertex
 10
1237.924072
 20
321.322754
 30
0.0
  0
VERTEX
  5
610
100
AcDbEntity
  8
0
100
AcDbVertex
100
AcDb2dVertex
 10
1246.408081
 20
333.322723
 30
0.0
  0
SEQEND
  5
611
100
AcDbEntity
  8
0
  0
POLYLINE
  5
612
100
AcDbEntity
  8
0
 62
     7
100
AcDb2dPolyline
 66
     1
 10
0.0
 20
0.0
 30
0.0
 71
    10
  0
VERTEX
  5
613
100
AcDbEntity
  8
0
100
AcDbVertex
100
AcDb2dVertex
 10
1339.675171
 20
369.322723
 30
0.0
  0
VERTEX
  5
614
100
AcDbEntity
  8
0
100
AcDbVertex
100
AcDb2dVertex
 10
1348.159058
 20
381.322754
 30
0.0
  0
VERTEX
  5
615
100
AcDbEntity
  8
0
100
AcDbVertex
100
AcDb2dVertex
 10
1373.610962
 20
381.322754
 30
0.0
  0
VERTEX
  5
616
100
AcDbEntity
  8
0
100
AcDbVertex
100
AcDb2dVertex
 10
1382.094971
 20
369.322723
 30
0.0
  0
VERTEX
  5
617
100
AcDbEntity
  8
0
100
AcDbVertex
100
AcDb2dVertex
 10
1382.094971
 20
351.322754
 30
0.0
  0
VERTEX
  5
618
100
AcDbEntity
  8
0
100
AcDbVertex
100
AcDb2dVertex
 10
1373.610962
 20
339.322723
 30
0.0
  0
VERTEX
  5
619
100
AcDbEntity
  8
0
100
AcDbVertex
100
AcDb2dVertex
 10
1356.643066
 20
339.322723
 30
0.0
  0
VERTEX
  5
61A
100
AcDbEntity
  8
0
100
AcDbVertex
100
AcDb2dVertex
 10
1339.675171
 20
315.322723
 30
0.0
  0
VERTEX
  5
61B
100
AcDbEntity
  8
0
100
AcDbVertex
100
AcDb2dVertex
 10
1339.675171
 20
303.322723
 30
0.0
  0
VERTEX
  5
61C
100
AcDbEntity
  8
0
100
AcDbVertex
100
AcDb2dVertex
 10
1386.337158
 20
303.322723
 30
0.0
  0
SEQEND
  5
61D
100
AcDbEntity
  8
0
  0
POLYLINE
  5
61E
100
AcDbEntity
  8
0
 62
     7
100
AcDb2dPolyline
 66
     1
 10
0.0
 20
0.0
 30
0.0
 70
     1
 71
     8
  0
VERTEX
  5
61F
100
AcDbEntity
  8
0
100
AcDbVertex
100
AcDb2dVertex
 10
1404.337036
 20
321.322754
 30
0.0
  0
VERTEX
  5
620
100
AcDbEntity
  8
0
100
AcDbVertex
100
AcDb2dVertex
 10
1417.06311
 20
303.322723
 30
0.0
  0
VERTEX
  5
621
100
AcDbEntity
  8
0
100
AcDbVertex
100
AcDb2dVertex
 10
1438.273193
 20
303.322723
 30
0.0
  0
VERTEX
  5
622
100
AcDbEntity
  8
0
100
AcDbVertex
100
AcDb2dVertex
 10
1450.999023
 20
321.322754
 30
0.0
  0
VERTEX
  5
623
100
AcDbEntity
  8
0
100
AcDbVertex
100
AcDb2dVertex
 10
1450.999023
 20
363.322723
 30
0.0
  0
VERTEX
  5
624
100
AcDbEntity
  8
0
100
AcDbVertex
100
AcDb2dVertex
 10
1438.273193
 20
381.322754
 30
0.0
  0
VERTEX
  5
625
100
AcDbEntity
  8
0
100
AcDbVertex
100
AcDb2dVertex
 10
1417.06311
 20
381.322754
 30
0.0
  0
VERTEX
  5
626
100
AcDbEntity
  8
0
100
AcDbVertex
100
AcDb2dVertex
 10
1404.337036
 20
363.322723
 30
0.0
  0
SEQEND
  5
627
100
AcDbEntity
  8
0
  0
LINE
  5
628
100
AcDbEntity
  8
0
 62
     7
100
AcDbLine
 10
1473.241089
 20
303.322723
 30
0.0
 11
1507.177002
 21
303.322723
 31
0.0
210
0.0
220
0.0
230
1.0
  0
POLYLINE
  5
629
100
AcDbEntity
  8
0
 62
     7
100
AcDb2dPolyline
 66
     1
 10
0.0
 20
0.0
 30
0.0
 71
     3
  0
VERTEX
  5
62A
100
AcDbEntity
  8
0
100
AcDbVertex
100
AcDb2dVertex
 10
1490.208984
 20
303.322723
 30
0.0
  0
VERTEX
  5
62B
100
AcDbEntity
  8
0
100
AcDbVertex
100
AcDb2dVertex
 10
1490.208984
 20
381.322754
 30
0.0
  0
VERTEX
  5
62C
100
AcDbEntity
  8
0
100
AcDbVertex
100
AcDb2dVertex
 10
1468.999146
 20
357.322723
 30
0.0
  0
SEQEND
  5
62D
100
AcDbEntity
  8
0
  0
POLYLINE
  5
62E
100
AcDbEntity
  8
0
 62
     7
100
AcDb2dPolyline
 66
     1
 10
0.0
 20
0.0
 30
0.0
 71
     7
  0
VERTEX
  5
62F
100
AcDbEntity
  8
0
100
AcDbVertex
100
AcDb2dVertex
 10
1525.177124
 20
315.322723
 30
0.0
  0
VERTEX
  5
630
100
AcDbEntity
  8
0
100
AcDbVertex
100
AcDb2dVertex
 10
1533.661011
 20
303.322723
 30
0.0
  0
VERTEX
  5
631
100
AcDbEntity
  8
0
100
AcDbVertex
100
AcDb2dVertex
 10
1563.355103
 20
303.322723
 30
0.0
  0
VERTEX
  5
632
100
AcDbEntity
  8
0
100
AcDbVertex
100
AcDb2dVertex
 10
1571.839111
 20
315.322723
 30
0.0
  0
VERTEX
  5
633
100
AcDbEntity
  8
0
100
AcDbVertex
100
AcDb2dVertex
 10
1571.839111
 20
333.322723
 30
0.0
  0
VERTEX
  5
634
100
AcDbEntity
  8
0
100
AcDbVertex
100
AcDb2dVertex
 10
1563.355103
 20
345.322723
 30
0.0
  0
VERTEX
  5
635
100
AcDbEntity
  8
0
100
AcDbVertex
100
AcDb2dVertex
 10
1542.14502
 20
345.322723
 30
0.0
  0
SEQEND
  5
636
100
AcDbEntity
  8
0
  0
POLYLINE
  5
637
100
AcDbEntity
  8
0
 62
     7
100
AcDb2dPolyline
 66
     1
 10
0.0
 20
0.0
 30
0.0
 71
     6
  0
VERTEX
  5
638
100
AcDbEntity
  8
0
100
AcDbVertex
100
AcDb2dVertex
 10
1563.355103
 20
345.322723
 30
0.0
  0
VERTEX
  5
639
100
AcDbEntity
  8
0
100
AcDbVertex
100
AcDb2dVertex
 10
1571.839111
 20
357.322723
 30
0.0
  0
VERTEX
  5
63A
100
AcDbEntity
  8
0
100
AcDbVertex
100
AcDb2dVertex
 10
1571.839111
 20
369.322723
 30
0.0
  0
VERTEX
  5
63B
100
AcDbEntity
  8
0
100
AcDbVertex
100
AcDb2dVertex
 10
1563.355103
 20
381.322754
 30
0.0
  0
VERTEX
  5
63C
100
AcDbEntity
  8
0
100
AcDbVertex
100
AcDb2dVertex
 10
1533.661011
 20
381.322754
 30
0.0
  0
VERTEX
  5
63D
100
AcDbEntity
  8
0
100
AcDbVertex
100
AcDb2dVertex
 10
1525.177124
 20
369.322723
 30
0.0
  0
SEQEND
  5
63E
100
AcDbEntity
  8
0
  0
POLYLINE
  5
63F
100
AcDbEntity
  8
0
 62
     7
100
AcDb2dPolyline
 66
     1
 10
0.0
 20
0.0
 30
0.0
 71
     7
  0
VERTEX
  5
640
100
AcDbEntity
  8
0
100
AcDbVertex
100
AcDb2dVertex
 10
1648.137939
 20
303.322723
 30
0.0
  0
VERTEX
  5
641
100
AcDbEntity
  8
0
100
AcDbVertex
100
AcDb2dVertex
 10
1648.137939
 20
381.322754
 30
0.0
  0
VERTEX
  5
642
100
AcDbEntity
  8
0
100
AcDbVertex
100
AcDb2dVertex
 10
1686.31604
 20
381.322754
 30
0.0
  0
VERTEX
  5
643
100
AcDbEntity
  8
0
100
AcDbVertex
100
AcDb2dVertex
 10
1694.799927
 20
369.322723
 30
0.0
  0
VERTEX
  5
644
100
AcDbEntity
  8
0
100
AcDbVertex
100
AcDb2dVertex
 10
1694.799927
 20
351.322754
 30
0.0
  0
VERTEX
  5
645
100
AcDbEntity
  8
0
100
AcDbVertex
100
AcDb2dVertex
 10
1686.31604
 20
339.322723
 30
0.0
  0
VERTEX
  5
646
100
AcDbEntity
  8
0
100
AcDbVertex
100
AcDb2dVertex
 10
1648.137939
 20
339.322723
 30
0.0
  0
SEQEND
  5
647
100
AcDbEntity
  8
0
  0
LINE
  5
648
100
AcDbEntity
  8
0
 62
     7
 48
0.212097
100
AcDbLine
 10
1712.800171
 20
303.322723
 30
0.0
 11
1721.284058
 21
303.322723
 31
0.0
210
0.0
220
0.0
230
1.0
  0
LINE
  5
649
100
AcDbEntity
  8
0
 62
     7
 48
0.212097
100
AcDbLine
 10
1721.284058
 20
381.322754
 30
0.0
 11
1712.800171
 21
381.322754
 31
0.0
210
0.0
220
0.0
230
1.0
  0
LINE
  5
64A
100
AcDbEntity
  8
0
 62
     7
100
AcDbLine
 10
1717.042114
 20
381.322754
 30
0.0
 11
1717.042114
 21
303.322723
 31
0.0
210
0.0
220
0.0
230
1.0
  0
POLYLINE
  5
64B
100
AcDbEntity
  8
0
 62
     7
100
AcDb2dPolyline
 66
     1
 10
0.0
 20
0.0
 30
0.0
 70
     1
 71
     8
  0
VERTEX
  5
64C
100
AcDbEntity
  8
0
100
AcDbVertex
100
AcDb2dVertex
 10
1752.01001
 20
303.322723
 30
0.0
  0
VERTEX
  5
64D
100
AcDbEntity
  8
0
100
AcDbVertex
100
AcDb2dVertex
 10
1739.284058
 20
321.322754
 30
0.0
  0
VERTEX
  5
64E
100
AcDbEntity
  8
0
100
AcDbVertex
100
AcDb2dVertex
 10
1739.284058
 20
363.322723
 30
0.0
  0
VERTEX
  5
64F
100
AcDbEntity
  8
0
100
AcDbVertex
100
AcDb2dVertex
 10
1752.01001
 20
381.322754
 30
0.0
  0
VERTEX
  5
650
100
AcDbEntity
  8
0
100
AcDbVertex
100
AcDb2dVertex
 10
1781.704102
 20
381.322754
 30
0.0
  0
VERTEX
  5
651
100
AcDbEntity
  8
0
100
AcDbVertex
100
AcDb2dVertex
 10
1794.430054
 20
363.322723
 30
0.0
  0
VERTEX
  5
652
100
AcDbEntity
  8
0
100
AcDbVertex
100
AcDb2dVertex
 10
1794.430054
 20
321.322754
 30
0.0
  0
VERTEX
  5
653
100
AcDbEntity
  8
0
100
AcDbVertex
100
AcDb2dVertex
 10
1781.704102
 20
303.322723
 30
0.0
  0
SEQEND
  5
654
100
AcDbEntity
  8
0
  0
POLYLINE
  5
655
100
AcDbEntity
  8
0
 62
     7
100
AcDb2dPolyline
 66
     1
 10
0.0
 20
0.0
 30
0.0
 71
     4
  0
VERTEX
  5
656
100
AcDbEntity
  8
0
100
AcDbVertex
100
AcDb2dVertex
 10
1812.430176
 20
303.322723
 30
0.0
  0
VERTEX
  5
657
100
AcDbEntity
  8
0
100
AcDbVertex
100
AcDb2dVertex
 10
1812.430176
 20
381.322754
 30
0.0
  0
VERTEX
  5
658
100
AcDbEntity
  8
0
100
AcDbVertex
100
AcDb2dVertex
 10
1859.092163
 20
303.322723
 30
0.0
  0
VERTEX
  5
659
100
AcDbEntity
  8
0
100
AcDbVertex
100
AcDb2dVertex
 10
1859.092163
 20
381.322754
 30
0.0
  0
SEQEND
  5
65A
100
AcDbEntity
  8
0
  0
LINE
  5
65B
100
AcDbEntity
  8
0
 62
     7
100
AcDbLine
 10
1877.092163
 20
345.322723
 30
0.0
 11
1915.270142
 21
345.322723
 31
0.0
210
0.0
220
0.0
230
1.0
  0
POLYLINE
  5
65C
100
AcDbEntity
  8
0
 62
     7
100
AcDb2dPolyline
 66
     1
 10
0.0
 20
0.0
 30
0.0
 71
     4
  0
VERTEX
  5
65D
100
AcDbEntity
  8
0
100
AcDbVertex
100
AcDb2dVertex
 10
1923.75415
 20
381.322754
 30
0.0
  0
VERTEX
  5
65E
100
AcDbEntity
  8
0
100
AcDbVertex
100
AcDb2dVertex
 10
1877.092163
 20
381.322754
 30
0.0
  0
VERTEX
  5
65F
100
AcDbEntity
  8
0
100
AcDbVertex
100
AcDb2dVertex
 10
1877.092163
 20
303.322723
 30
0.0
  0
VERTEX
  5
660
100
AcDbEntity
  8
0
100
AcDbVertex
100
AcDb2dVertex
 10
1923.75415
 20
303.322723
 30
0.0
  0
SEQEND
  5
661
100
AcDbEntity
  8
0
  0
LINE
  5
662
100
AcDbEntity
  8
0
 62
     7
100
AcDbLine
 10
1941.75415
 20
345.322723
 30
0.0
 11
1979.932129
 21
345.322723
 31
0.0
210
0.0
220
0.0
230
1.0
  0
POLYLINE
  5
663
100
AcDbEntity
  8
0
 62
     7
100
AcDb2dPolyline
 66
     1
 10
0.0
 20
0.0
 30
0.0
 71
     4
  0
VERTEX
  5
664
100
AcDbEntity
  8
0
100
AcDbVertex
100
AcDb2dVertex
 10
1988.416138
 20
381.322754
 30
0.0
  0
VERTEX
  5
665
100
AcDbEntity
  8
0
100
AcDbVertex
100
AcDb2dVertex
 10
1941.75415
 20
381.322754
 30
0.0
  0
VERTEX
  5
666
100
AcDbEntity
  8
0
100
AcDbVertex
100
AcDb2dVertex
 10
1941.75415
 20
303.322723
 30
0.0
  0
VERTEX
  5
667
100
AcDbEntity
  8
0
100
AcDbVertex
100
AcDb2dVertex
 10
1988.416138
 20
303.322723
 30
0.0
  0
SEQEND
  5
668
100
AcDbEntity
  8
0
  0
POLYLINE
  5
669
100
AcDbEntity
  8
0
 62
     7
100
AcDb2dPolyline
 66
     1
 10
0.0
 20
0.0
 30
0.0
 71
     7
  0
VERTEX
  5
66A
100
AcDbEntity
  8
0
100
AcDbVertex
100
AcDb2dVertex
 10
2006.41626
 20
303.322723
 30
0.0
  0
VERTEX
  5
66B
100
AcDbEntity
  8
0
100
AcDbVertex
100
AcDb2dVertex
 10
2006.41626
 20
381.322754
 30
0.0
  0
VERTEX
  5
66C
100
AcDbEntity
  8
0
100
AcDbVertex
100
AcDb2dVertex
 10
2044.594116
 20
381.322754
 30
0.0
  0
VERTEX
  5
66D
100
AcDbEntity
  8
0
100
AcDbVertex
100
AcDb2dVertex
 10
2053.078125
 20
369.322723
 30
0.0
  0
VERTEX
  5
66E
100
AcDbEntity
  8
0
100
AcDbVertex
100
AcDb2dVertex
 10
2053.078125
 20
351.322754
 30
0.0
  0
VERTEX
  5
66F
100
AcDbEntity
  8
0
100
AcDbVertex
100
AcDb2dVertex
 10
2044.594116
 20
339.322723
 30
0.0
  0
VERTEX
  5
670
100
AcDbEntity
  8
0
100
AcDbVertex
100
AcDb2dVertex
 10
2006.41626
 20
339.322723
 30
0.0
  0
SEQEND
  5
671
100
AcDbEntity
  8
0
  0
LINE
  5
672
100
AcDbEntity
  8
0
 62
     7
100
AcDbLine
 10
2023.384155
 20
339.322723
 30
0.0
 11
2048.836182
 21
303.322723
 31
0.0
210
0.0
220
0.0
230
1.0
  0
POLYLINE
  5
673
100
AcDbEntity
  8
0
 62
     7
100
AcDb2dPolyline
 66
     1
 10
0.0
 20
0.0
 30
0.0
 71
     8
  0
VERTEX
  5
674
100
AcDbEntity
  8
0
100
AcDbVertex
100
AcDb2dVertex
 10
2184.523193
 20
321.322754
 30
0.0
  0
VERTEX
  5
675
100
AcDbEntity
  8
0
100
AcDbVertex
100
AcDb2dVertex
 10
2171.797119
 20
303.322723
 30
0.0
  0
VERTEX
  5
676
100
AcDbEntity
  8
0
100
AcDbVertex
100
AcDb2dVertex
 10
2142.103271
 20
303.322723
 30
0.0
  0
VERTEX
  5
677
100
AcDbEntity
  8
0
100
AcDbVertex
100
AcDb2dVertex
 10
2129.377441
 20
321.322754
 30
0.0
  0
VERTEX
  5
678
100
AcDbEntity
  8
0
100
AcDbVertex
100
AcDb2dVertex
 10
2129.377441
 20
363.322723
 30
0.0
  0
VERTEX
  5
679
100
AcDbEntity
  8
0
100
AcDbVertex
100
AcDb2dVertex
 10
2142.103271
 20
381.322754
 30
0.0
  0
VERTEX
  5
67A
100
AcDbEntity
  8
0
100
AcDbVertex
100
AcDb2dVertex
 10
2171.797119
 20
381.322754
 30
0.0
  0
VERTEX
  5
67B
100
AcDbEntity
  8
0
100
AcDbVertex
100
AcDb2dVertex
 10
2184.523193
 20
363.322723
 30
0.0
  0
SEQEND
  5
67C
100
AcDbEntity
  8
0
  0
POLYLINE
  5
67D
100
AcDbEntity
  8
0
 62
     7
100
AcDb2dPolyline
 66
     1
 10
0.0
 20
0.0
 30
0.0
 70
     1
 71
     8
  0
VERTEX
  5
67E
100
AcDbEntity
  8
0
100
AcDbVertex
100
AcDb2dVertex
 10
2215.249268
 20
303.322723
 30
0.0
  0
VERTEX
  5
67F
100
AcDbEntity
  8
0
100
AcDbVertex
100
AcDb2dVertex
 10
2202.523438
 20
321.322754
 30
0.0
  0
VERTEX
  5
680
100
AcDbEntity
  8
0
100
AcDbVertex
100
AcDb2dVertex
 10
2202.523438
 20
363.322723
 30
0.0
  0
VERTEX
  5
681
100
AcDbEntity
  8
0
100
AcDbVertex
100
AcDb2dVertex
 10
2215.249268
 20
381.322754
 30
0.0
  0
VERTEX
  5
682
100
AcDbEntity
  8
0
100
AcDbVertex
100
AcDb2dVertex
 10
2244.943359
 20
381.322754
 30
0.0
  0
VERTEX
  5
683
100
AcDbEntity
  8
0
100
AcDbVertex
100
AcDb2dVertex
 10
2257.669189
 20
363.322723
 30
0.0
  0
VERTEX
  5
684
100
AcDbEntity
  8
0
100
AcDbVertex
100
AcDb2dVertex
 10
2257.669189
 20
321.322754
 30
0.0
  0
VERTEX
  5
685
100
AcDbEntity
  8
0
100
AcDbVertex
100
AcDb2dVertex
 10
2244.943359
 20
303.322723
 30
0.0
  0
SEQEND
  5
686
100
AcDbEntity
  8
0
  0
POLYLINE
  5
687
100
AcDbEntity
  8
0
 62
     7
100
AcDb2dPolyline
 66
     1
 10
0.0
 20
0.0
 30
0.0
 71
     7
  0
VERTEX
  5
688
100
AcDbEntity
  8
0
100
AcDbVertex
100
AcDb2dVertex
 10
2275.669434
 20
303.322723
 30
0.0
  0
VERTEX
  5
689
100
AcDbEntity
  8
0
100
AcDbVertex
100
AcDb2dVertex
 10
2275.669434
 20
381.322754
 30
0.0
  0
VERTEX
  5
68A
100
AcDbEntity
  8
0
100
AcDbVertex
100
AcDb2dVertex
 10
2313.847168
 20
381.322754
 30
0.0
  0
VERTEX
  5
68B
100
AcDbEntity
  8
0
100
AcDbVertex
100
AcDb2dVertex
 10
2322.331299
 20
369.322723
 30
0.0
  0
VERTEX
  5
68C
100
AcDbEntity
  8
0
100
AcDbVertex
100
AcDb2dVertex
 10
2322.331299
 20
351.322754
 30
0.0
  0
VERTEX
  5
68D
100
AcDbEntity
  8
0
100
AcDbVertex
100
AcDb2dVertex
 10
2313.847168
 20
339.322723
 30
0.0
  0
VERTEX
  5
68E
100
AcDbEntity
  8
0
100
AcDbVertex
100
AcDb2dVertex
 10
2275.669434
 20
339.322723
 30
0.0
  0
SEQEND
  5
68F
100
AcDbEntity
  8
0
  0
LINE
  5
690
100
AcDbEntity
  8
0
 62
     7
100
AcDbLine
 10
2292.637207
 20
339.322723
 30
0.0
 11
2318.089355
 21
303.322723
 31
0.0
210
0.0
220
0.0
230
1.0
  0
POLYLINE
  5
691
100
AcDbEntity
  8
0
 62
     7
100
AcDb2dPolyline
 66
     1
 10
0.0
 20
0.0
 30
0.0
 71
     7
  0
VERTEX
  5
692
100
AcDbEntity
  8
0
100
AcDbVertex
100
AcDb2dVertex
 10
2340.331299
 20
303.322723
 30
0.0
  0
VERTEX
  5
693
100
AcDbEntity
  8
0
100
AcDbVertex
100
AcDb2dVertex
 10
2340.331299
 20
381.322754
 30
0.0
  0
VERTEX
  5
694
100
AcDbEntity
  8
0
100
AcDbVertex
100
AcDb2dVertex
 10
2378.509277
 20
381.322754
 30
0.0
  0
VERTEX
  5
695
100
AcDbEntity
  8
0
100
AcDbVertex
100
AcDb2dVertex
 10
2386.993408
 20
369.322723
 30
0.0
  0
VERTEX
  5
696
100
AcDbEntity
  8
0
100
AcDbVertex
100
AcDb2dVertex
 10
2386.993408
 20
351.322754
 30
0.0
  0
VERTEX
  5
697
100
AcDbEntity
  8
0
100
AcDbVertex
100
AcDb2dVertex
 10
2378.509277
 20
339.322723
 30
0.0
  0
VERTEX
  5
698
100
AcDbEntity
  8
0
100
AcDbVertex
100
AcDb2dVertex
 10
2340.331299
 20
339.322723
 30
0.0
  0
SEQEND
  5
699
100
AcDbEntity
  8
0
  0
POLYLINE
  5
69A
100
AcDbEntity
  8
0
 62
     7
100
AcDb2dPolyline
 66
     1
 10
0.0
 20
0.0
 30
0.0
 70
     1
 71
     8
  0
VERTEX
  5
69B
100
AcDbEntity
  8
0
100
AcDbVertex
100
AcDb2dVertex
 10
2417.719238
 20
303.322723
 30
0.0
  0
VERTEX
  5
69C
100
AcDbEntity
  8
0
100
AcDbVertex
100
AcDb2dVertex
 10
2404.993408
 20
321.322754
 30
0.0
  0
VERTEX
  5
69D
100
AcDbEntity
  8
0
100
AcDbVertex
100
AcDb2dVertex
 10
2404.993408
 20
363.322723
 30
0.0
  0
VERTEX
  5
69E
100
AcDbEntity
  8
0
100
AcDbVertex
100
AcDb2dVertex
 10
2417.719238
 20
381.322754
 30
0.0
  0
VERTEX
  5
69F
100
AcDbEntity
  8
0
100
AcDbVertex
100
AcDb2dVertex
 10
2447.41333
 20
381.322754
 30
0.0
  0
VERTEX
  5
6A0
100
AcDbEntity
  8
0
100
AcDbVertex
100
AcDb2dVertex
 10
2460.13916
 20
363.322723
 30
0.0
  0
VERTEX
  5
6A1
100
AcDbEntity
  8
0
100
AcDbVertex
100
AcDb2dVertex
 10
2460.13916
 20
321.322754
 30
0.0
  0
VERTEX
  5
6A2
100
AcDbEntity
  8
0
100
AcDbVertex
100
AcDb2dVertex
 10
2447.41333
 20
303.322723
 30
0.0
  0
SEQEND
  5
6A3
100
AcDbEntity
  8
0
  0
POLYLINE
  5
6A4
100
AcDbEntity
  8
0
 62
     7
100
AcDb2dPolyline
 66
     1
 10
0.0
 20
0.0
 30
0.0
 71
     7
  0
VERTEX
  5
6A5
100
AcDbEntity
  8
0
100
AcDbVertex
100
AcDb2dVertex
 10
2478.13916
 20
303.322723
 30
0.0
  0
VERTEX
  5
6A6
100
AcDbEntity
  8
0
100
AcDbVertex
100
AcDb2dVertex
 10
2478.13916
 20
381.322754
 30
0.0
  0
VERTEX
  5
6A7
100
AcDbEntity
  8
0
100
AcDbVertex
100
AcDb2dVertex
 10
2516.317139
 20
381.322754
 30
0.0
  0
VERTEX
  5
6A8
100
AcDbEntity
  8
0
100
AcDbVertex
100
AcDb2dVertex
 10
2524.80127
 20
369.322723
 30
0.0
  0
VERTEX
  5
6A9
100
AcDbEntity
  8
0
100
AcDbVertex
100
AcDb2dVertex
 10
2524.80127
 20
351.322754
 30
0.0
  0
VERTEX
  5
6AA
100
AcDbEntity
  8
0
100
AcDbVertex
100
AcDb2dVertex
 10
2516.317139
 20
339.322723
 30
0.0
  0
VERTEX
  5
6AB
100
AcDbEntity
  8
0
100
AcDbVertex
100
AcDb2dVertex
 10
2478.13916
 20
339.322723
 30
0.0
  0
SEQEND
  5
6AC
100
AcDbEntity
  8
0
  0
LINE
  5
6AD
100
AcDbEntity
  8
0
 62
     7
100
AcDbLine
 10
2495.107178
 20
339.322723
 30
0.0
 11
2520.559326
 21
303.322723
 31
0.0
210
0.0
220
0.0
230
1.0
  0
POLYLINE
  5
6AE
100
AcDbEntity
  8
0
 62
     7
100
AcDb2dPolyline
 66
     1
 10
0.0
 20
0.0
 30
0.0
 71
     4
  0
VERTEX
  5
6AF
100
AcDbEntity
  8
0
100
AcDbVertex
100
AcDb2dVertex
 10
2542.80127
 20
303.322723
 30
0.0
  0
VERTEX
  5
6B0
100
AcDbEntity
  8
0
100
AcDbVertex
100
AcDb2dVertex
 10
2568.253418
 20
381.322754
 30
0.0
  0
VERTEX
  5
6B1
100
AcDbEntity
  8
0
100
AcDbVertex
100
AcDb2dVertex
 10
2572.495361
 20
381.322754
 30
0.0
  0
VERTEX
  5
6B2
100
AcDbEntity
  8
0
100
AcDbVertex
100
AcDb2dVertex
 10
2597.947021
 20
303.322723
 30
0.0
  0
SEQEND
  5
6B3
100
AcDbEntity
  8
0
  0
LINE
  5
6B4
100
AcDbEntity
  8
0
 62
     7
100
AcDbLine
 10
2589.463135
 20
327.322723
 30
0.0
 11
2551.285156
 21
327.322723
 31
0.0
210
0.0
220
0.0
230
1.0
  0
LINE
  5
6B5
100
AcDbEntity
  8
0
 62
     7
100
AcDbLine
 10
2641.39917
 20
303.322723
 30
0.0
 11
2641.39917
 21
381.322754
 31
0.0
210
0.0
220
0.0
230
1.0
  0
LINE
  5
6B6
100
AcDbEntity
  8
0
 62
     7
100
AcDbLine
 10
2615.94751
 20
381.322754
 30
0.0
 11
2666.851563
 21
381.322754
 31
0.0
210
0.0
220
0.0
230
1.0
  0
LINE
  5
6B7
100
AcDbEntity
  8
0
 62
     7
 48
0.212097
100
AcDbLine
 10
2684.851318
 20
303.322723
 30
0.0
 11
2693.335205
 21
303.322723
 31
0.0
210
0.0
220
0.0
230
1.0
  0
LINE
  5
6B8
100
AcDbEntity
  8
0
 62
     7
 48
0.212097
100
AcDbLine
 10
2693.335205
 20
381.322754
 30
0.0
 11
2684.851318
 21
381.322754
 31
0.0
210
0.0
220
0.0
230
1.0
  0
LINE
  5
6B9
100
AcDbEntity
  8
0
 62
     7
100
AcDbLine
 10
2689.093262
 20
381.322754
 30
0.0
 11
2689.093262
 21
303.322723
 31
0.0
210
0.0
220
0.0
230
1.0
  0
POLYLINE
  5
6BA
100
AcDbEntity
  8
0
 62
     7
100
AcDb2dPolyline
 66
     1
 10
0.0
 20
0.0
 30
0.0
 70
     1
 71
     8
  0
VERTEX
  5
6BB
100
AcDbEntity
  8
0
100
AcDbVertex
100
AcDb2dVertex
 10
2724.061279
 20
303.322723
 30
0.0
  0
VERTEX
  5
6BC
100
AcDbEntity
  8
0
100
AcDbVertex
100
AcDb2dVertex
 10
2711.335205
 20
321.322754
 30
0.0
  0
VERTEX
  5
6BD
100
AcDbEntity
  8
0
100
AcDbVertex
100
AcDb2dVertex
 10
2711.335205
 20
363.322723
 30
0.0
  0
VERTEX
  5
6BE
100
AcDbEntity
  8
0
100
AcDbVertex
100
AcDb2dVertex
 10
2724.061279
 20
381.322754
 30
0.0
  0
VERTEX
  5
6BF
100
AcDbEntity
  8
0
100
AcDbVertex
100
AcDb2dVertex
 10
2753.755127
 20
381.322754
 30
0.0
  0
VERTEX
  5
6C0
100
AcDbEntity
  8
0
100
AcDbVertex
100
AcDb2dVertex
 10
2766.480957
 20
363.322723
 30
0.0
  0
VERTEX
  5
6C1
100
AcDbEntity
  8
0
100
AcDbVertex
100
AcDb2dVertex
 10
2766.480957
 20
321.322754
 30
0.0
  0
VERTEX
  5
6C2
100
AcDbEntity
  8
0
100
AcDbVertex
100
AcDb2dVertex
 10
2753.755127
 20
303.322723
 30
0.0
  0
SEQEND
  5
6C3
100
AcDbEntity
  8
0
  0
POLYLINE
  5
6C4
100
AcDbEntity
  8
0
 62
     7
100
AcDb2dPolyline
 66
     1
 10
0.0
 20
0.0
 30
0.0
 71
     4
  0
VERTEX
  5
6C5
100
AcDbEntity
  8
0
100
AcDbVertex
100
AcDb2dVertex
 10
2784.481201
 20
303.322723
 30
0.0
  0
VERTEX
  5
6C6
100
AcDbEntity
  8
0
100
AcDbVertex
100
AcDb2dVertex
 10
2784.481201
 20
381.322754
 30
0.0
  0
VERTEX
  5
6C7
100
AcDbEntity
  8
0
100
AcDbVertex
100
AcDb2dVertex
 10
2831.143066
 20
303.322723
 30
0.0
  0
VERTEX
  5
6C8
100
AcDbEntity
  8
0
100
AcDbVertex
100
AcDb2dVertex
 10
2831.143066
 20
381.322754
 30
0.0
  0
SEQEND
  5
6C9
100
AcDbEntity
  8
0
  0
LINE
  5
6CA
100
AcDbEntity
  8
0
 62
     7
100
AcDbLine
 10
4240.964844
 20
2506.232422
 30
0.0
 11
1800.964478
 21
2506.232422
 31
0.0
210
0.0
220
0.0
230
1.0
  0
LINE
  5
6CB
100
AcDbEntity
  8
0
 62
     7
100
AcDbLine
 10
4230.976074
 20
2488.232422
 30
0.0
 11
1810.953247
 21
2488.232422
 31
0.0
210
0.0
220
0.0
230
1.0
  0
LINE
  5
6CC
100
AcDbEntity
  8
0
 62
     7
 48
0.224994
100
AcDbLine
 10
1800.964478
 20
2497.232666
 30
0.0
 11
1800.964478
 21
2506.232422
 31
0.0
210
0.0
220
0.0
230
1.0
  0
LINE
  5
6CD
100
AcDbEntity
  8
0
 62
     7
 48
0.224994
100
AcDbLine
 10
4240.964844
 20
2497.232666
 30
0.0
 11
4240.964844
 21
2506.232422
 31
0.0
210
0.0
220
0.0
230
1.0
  0
LINE
  5
6CE
100
AcDbEntity
  8
0
 62
     7
 48
0.177411
100
AcDbLine
 10
4240.964844
 20
2497.232666
 30
0.0
 11
4240.964844
 21
2490.13623
 31
0.0
210
0.0
220
0.0
230
1.0
  0
LINE
  5
6CF
100
AcDbEntity
  8
0
 62
     7
 48
0.177411
100
AcDbLine
 10
1800.964478
 20
2497.232666
 30
0.0
 11
1800.964478
 21
2490.13623
 31
0.0
210
0.0
220
0.0
230
1.0
  0
POLYLINE
  5
6D0
100
AcDbEntity
  8
0
 62
     7
100
AcDb2dPolyline
 66
     1
 10
0.0
 20
0.0
 30
0.0
 71
    13
  0
VERTEX
  5
6D1
100
AcDbEntity
  8
0
100
AcDbVertex
100
AcDb2dVertex
 10
1810.953247
 20
2488.232422
 30
0.0
  0
VERTEX
  5
6D2
100
AcDbEntity
  8
0
100
AcDbVertex
100
AcDb2dVertex
 10
1810.274536
 20
2488.240479
 30
0.0
  0
VERTEX
  5
6D3
100
AcDbEntity
  8
0
100
AcDbVertex
100
AcDb2dVertex
 10
1809.457275
 20
2488.270752
 30
0.0
  0
VERTEX
  5
6D4
100
AcDbEntity
  8
0
100
AcDbVertex
100
AcDb2dVertex
 10
1808.411377
 20
2488.343506
 30
0.0
  0
VERTEX
  5
6D5
100
AcDbEntity
  8
0
100
AcDbVertex
100
AcDb2dVertex
 10
1807.921021
 20
2488.390869
 30
0.0
  0
VERTEX
  5
6D6
100
AcDbEntity
  8
0
100
AcDbVertex
100
AcDb2dVertex
 10
1806.510132
 20
2488.575928
 30
0.0
  0
VERTEX
  5
6D7
100
AcDbEntity
  8
0
100
AcDbVertex
100
AcDb2dVertex
 10
1805.78479
 20
2488.700439
 30
0.0
  0
VERTEX
  5
6D8
100
AcDbEntity
  8
0
100
AcDbVertex
100
AcDb2dVertex
 10
1805.062378
 20
2488.845459
 30
0.0
  0
VERTEX
  5
6D9
100
AcDbEntity
  8
0
100
AcDbVertex
100
AcDb2dVertex
 10
1804.390137
 20
2489.000244
 30
0.0
  0
VERTEX
  5
6DA
100
AcDbEntity
  8
0
100
AcDbVertex
100
AcDb2dVertex
 10
1803.72168
 20
2489.174072
 30
0.0
  0
VERTEX
  5
6DB
100
AcDbEntity
  8
0
100
AcDbVertex
100
AcDb2dVertex
 10
1802.790039
 20
2489.452148
 30
0.0
  0
VERTEX
  5
6DC
100
AcDbEntity
  8
0
100
AcDbVertex
100
AcDb2dVertex
 10
1801.869995
 20
2489.771729
 30
0.0
  0
VERTEX
  5
6DD
100
AcDbEntity
  8
0
100
AcDbVertex
100
AcDb2dVertex
 10
1800.964478
 20
2490.13623
 30
0.0
  0
SEQEND
  5
6DE
100
AcDbEntity
  8
0
  0
POLYLINE
  5
6DF
100
AcDbEntity
  8
0
 62
     7
100
AcDb2dPolyline
 66
     1
 10
0.0
 20
0.0
 30
0.0
 71
    13
  0
VERTEX
  5
6E0
100
AcDbEntity
  8
0
100
AcDbVertex
100
AcDb2dVertex
 10
4230.976074
 20
2488.232422
 30
0.0
  0
VERTEX
  5
6E1
100
AcDbEntity
  8
0
100
AcDbVertex
100
AcDb2dVertex
 10
4231.654785
 20
2488.240479
 30
0.0
  0
VERTEX
  5
6E2
100
AcDbEntity
  8
0
100
AcDbVertex
100
AcDb2dVertex
 10
4232.472168
 20
2488.270752
 30
0.0
  0
VERTEX
  5
6E3
100
AcDbEntity
  8
0
100
AcDbVertex
100
AcDb2dVertex
 10
4233.51709
 20
2488.343506
 30
0.0
  0
VERTEX
  5
6E4
100
AcDbEntity
  8
0
100
AcDbVertex
100
AcDb2dVertex
 10
4234.007324
 20
2488.390625
 30
0.0
  0
VERTEX
  5
6E5
100
AcDbEntity
  8
0
100
AcDbVertex
100
AcDb2dVertex
 10
4235.417969
 20
2488.575928
 30
0.0
  0
VERTEX
  5
6E6
100
AcDbEntity
  8
0
100
AcDbVertex
100
AcDb2dVertex
 10
4236.143555
 20
2488.700439
 30
0.0
  0
VERTEX
  5
6E7
100
AcDbEntity
  8
0
100
AcDbVertex
100
AcDb2dVertex
 10
4236.865723
 20
2488.845215
 30
0.0
  0
VERTEX
  5
6E8
100
AcDbEntity
  8
0
100
AcDbVertex
100
AcDb2dVertex
 10
4237.538086
 20
2489.0
 30
0.0
  0
VERTEX
  5
6E9
100
AcDbEntity
  8
0
100
AcDbVertex
100
AcDb2dVertex
 10
4238.206543
 20
2489.173828
 30
0.0
  0
VERTEX
  5
6EA
100
AcDbEntity
  8
0
100
AcDbVertex
100
AcDb2dVertex
 10
4239.138672
 20
2489.451904
 30
0.0
  0
VERTEX
  5
6EB
100
AcDbEntity
  8
0
100
AcDbVertex
100
AcDb2dVertex
 10
4240.059082
 20
2489.771729
 30
0.0
  0
VERTEX
  5
6EC
100
AcDbEntity
  8
0
100
AcDbVertex
100
AcDb2dVertex
 10
4240.964844
 20
2490.13623
 30
0.0
  0
SEQEND
  5
6ED
100
AcDbEntity
  8
0
  0
LINE
  5
6EE
100
AcDbEntity
  8
0
 62
     7
100
AcDbLine
 10
3002.964355
 20
2506.232422
 30
0.0
 11
3002.964355
 21
3538.232666
 31
0.0
210
0.0
220
0.0
230
1.0
  0
LINE
  5
6EF
100
AcDbEntity
  8
0
 62
     7
100
AcDbLine
 10
3002.964355
 20
2506.232422
 30
0.0
 11
3038.9646
 21
2506.232422
 31
0.0
210
0.0
220
0.0
230
1.0
  0
LINE
  5
6F0
100
AcDbEntity
  8
0
 62
     7
100
AcDbLine
 10
3038.9646
 20
2506.232422
 30
0.0
 11
3038.9646
 21
3538.232666
 31
0.0
210
0.0
220
0.0
230
1.0
  0
LINE
  5
6F1
100
AcDbEntity
  8
0
 62
     7
100
AcDbLine
 10
3002.964355
 20
3538.232666
 30
0.0
 11
3038.9646
 21
3538.232666
 31
0.0
210
0.0
220
0.0
230
1.0
  0
LINE
  5
6F2
100
AcDbEntity
  8
0
 62
     7
100
AcDbLine
 10
2795.9646
 20
2506.232422
 30
0.0
 11
2795.9646
 21
3538.232666
 31
0.0
210
0.0
220
0.0
230
1.0
  0
LINE
  5
6F3
100
AcDbEntity
  8
0
 62
     7
100
AcDbLine
 10
2795.9646
 20
2506.232422
 30
0.0
 11
3002.964355
 21
2506.232422
 31
0.0
210
0.0
220
0.0
230
1.0
  0
LINE
  5
6F4
100
AcDbEntity
  8
0
 62
     7
100
AcDbLine
 10
1800.964478
 20
2506.232422
 30
0.0
 11
1800.964478
 21
3538.232666
 31
0.0
210
0.0
220
0.0
230
1.0
  0
LINE
  5
6F5
100
AcDbEntity
  8
0
 62
     7
 48
0.374405
100
AcDbLine
 10
1800.964478
 20
3538.232666
 30
0.0
 11
1815.940674
 21
3538.232666
 31
0.0
210
0.0
220
0.0
230
1.0
  0
LINE
  5
6F6
100
AcDbEntity
  8
0
 62
     7
100
AcDbLine
 10
1815.940674
 20
2506.232422
 30
0.0
 11
1815.940674
 21
3538.232666
 31
0.0
210
0.0
220
0.0
230
1.0
  0
LINE
  5
6F7
100
AcDbEntity
  8
0
 62
     7
 48
0.374405
100
AcDbLine
 10
1815.940674
 20
2506.232422
 30
0.0
 11
1800.964478
 21
2506.232422
 31
0.0
210
0.0
220
0.0
230
1.0
  0
LINE
  5
6F8
100
AcDbEntity
  8
0
 62
     7
100
AcDbLine
 10
2268.167236
 20
3538.232666
 30
0.0
 11
2268.167236
 21
2506.232422
 31
0.0
210
0.0
220
0.0
230
1.0
  0
LINE
  5
6F9
100
AcDbEntity
  8
0
 62
     7
 48
0.155432
100
AcDbLine
 10
1822.157959
 20
2506.232422
 30
0.0
 11
1815.940674
 21
2506.232422
 31
0.0
210
0.0
220
0.0
230
1.0
  0
LINE
  5
6FA
100
AcDbEntity
  8
0
 62
     7
100
AcDbLine
 10
1822.157959
 20
2506.232422
 30
0.0
 11
1822.157959
 21
3538.232666
 31
0.0
210
0.0
220
0.0
230
1.0
  0
LINE
  5
6FB
100
AcDbEntity
  8
0
 62
     7
100
AcDbLine
 10
2181.838867
 20
2506.232422
 30
0.0
 11
2181.838867
 21
3538.232666
 31
0.0
210
0.0
220
0.0
230
1.0
  0
LINE
  5
6FC
100
AcDbEntity
  8
0
 62
     7
100
AcDbLine
 10
1822.157959
 20
2506.232422
 30
0.0
 11
2181.838867
 21
2506.232422
 31
0.0
210
0.0
220
0.0
230
1.0
  0
LINE
  5
6FD
100
AcDbEntity
  8
0
 62
     7
100
AcDbLine
 10
2268.167236
 20
2506.232422
 30
0.0
 11
2268.167236
 21
3538.232666
 31
0.0
210
0.0
220
0.0
230
1.0
  0
LINE
  5
6FE
100
AcDbEntity
  8
0
 62
     7
100
AcDbLine
 10
2181.838867
 20
2506.232422
 30
0.0
 11
2181.838867
 21
3538.232666
 31
0.0
210
0.0
220
0.0
230
1.0
  0
LINE
  5
6FF
100
AcDbEntity
  8
0
 62
     7
100
AcDbLine
 10
2268.167236
 20
2506.232422
 30
0.0
 11
2181.838867
 21
2506.232422
 31
0.0
210
0.0
220
0.0
230
1.0
  0
LINE
  5
700
100
AcDbEntity
  8
0
 62
     7
100
AcDbLine
 10
2392.964355
 20
2506.232422
 30
0.0
 11
2392.964355
 21
3538.232666
 31
0.0
210
0.0
220
0.0
230
1.0
  0
LINE
  5
701
100
AcDbEntity
  8
0
 62
     7
100
AcDbLine
 10
2392.964355
 20
2506.232422
 30
0.0
 11
2428.964355
 21
2506.232422
 31
0.0
210
0.0
220
0.0
230
1.0
  0
LINE
  5
702
100
AcDbEntity
  8
0
 62
     7
100
AcDbLine
 10
2428.964355
 20
2506.232422
 30
0.0
 11
2428.964355
 21
3538.232666
 31
0.0
210
0.0
220
0.0
230
1.0
  0
LINE
  5
703
100
AcDbEntity
  8
0
 62
     7
100
AcDbLine
 10
2392.964355
 20
3538.232666
 30
0.0
 11
2428.964355
 21
3538.232666
 31
0.0
210
0.0
220
0.0
230
1.0
  0
LINE
  5
704
100
AcDbEntity
  8
0
 62
     7
100
AcDbLine
 10
3612.964844
 20
2506.232422
 30
0.0
 11
3612.964844
 21
3538.232666
 31
0.0
210
0.0
220
0.0
230
1.0
  0
LINE
  5
705
100
AcDbEntity
  8
0
 62
     7
100
AcDbLine
 10
3612.964844
 20
2506.232422
 30
0.0
 11
3648.9646
 21
2506.232422
 31
0.0
210
0.0
220
0.0
230
1.0
  0
LINE
  5
706
100
AcDbEntity
  8
0
 62
     7
100
AcDbLine
 10
3648.9646
 20
2506.232422
 30
0.0
 11
3648.9646
 21
3538.232666
 31
0.0
210
0.0
220
0.0
230
1.0
  0
LINE
  5
707
100
AcDbEntity
  8
0
 62
     7
100
AcDbLine
 10
3612.964844
 20
3538.232666
 30
0.0
 11
3648.9646
 21
3538.232666
 31
0.0
210
0.0
220
0.0
230
1.0
  0
LINE
  5
708
100
AcDbEntity
  8
0
 62
     7
100
AcDbLine
 10
3245.9646
 20
3538.232666
 30
0.0
 11
3245.9646
 21
2506.232422
 31
0.0
210
0.0
220
0.0
230
1.0
  0
LINE
  5
709
100
AcDbEntity
  8
0
 62
     7
100
AcDbLine
 10
3245.9646
 20
2506.232422
 30
0.0
 11
3038.9646
 21
2506.232422
 31
0.0
210
0.0
220
0.0
230
1.0
  0
LINE
  5
70A
100
AcDbEntity
  8
0
 62
     7
100
AcDbLine
 10
4240.964844
 20
3538.232666
 30
0.0
 11
4240.964844
 21
2506.232422
 31
0.0
210
0.0
220
0.0
230
1.0
  0
LINE
  5
70B
100
AcDbEntity
  8
0
 62
     7
 48
0.374402
100
AcDbLine
 10
4240.964844
 20
2506.232422
 30
0.0
 11
4225.98877
 21
2506.232422
 31
0.0
210
0.0
220
0.0
230
1.0
  0
LINE
  5
70C
100
AcDbEntity
  8
0
 62
     7
100
AcDbLine
 10
4225.98877
 20
3538.232666
 30
0.0
 11
4225.98877
 21
2506.232422
 31
0.0
210
0.0
220
0.0
230
1.0
  0
LINE
  5
70D
100
AcDbEntity
  8
0
 62
     7
 48
0.374402
100
AcDbLine
 10
4225.98877
 20
3538.232666
 30
0.0
 11
4240.964844
 21
3538.232666
 31
0.0
210
0.0
220
0.0
230
1.0
  0
LINE
  5
70E
100
AcDbEntity
  8
0
 62
     7
 48
0.155444
100
AcDbLine
 10
4219.770996
 20
2506.232422
 30
0.0
 11
4225.98877
 21
2506.232422
 31
0.0
210
0.0
220
0.0
230
1.0
  0
LINE
  5
70F
100
AcDbEntity
  8
0
 62
     7
100
AcDbLine
 10
3773.761963
 20
3538.232666
 30
0.0
 11
3773.761963
 21
2506.232422
 31
0.0
210
0.0
220
0.0
230
1.0
  0
LINE
  5
710
100
AcDbEntity
  8
0
 62
     7
100
AcDbLine
 10
3860.090332
 20
2506.232422
 30
0.0
 11
3773.761963
 21
2506.232422
 31
0.0
210
0.0
220
0.0
230
1.0
  0
LINE
  5
711
100
AcDbEntity
  8
0
 62
     7
100
AcDbLine
 10
3860.090332
 20
3538.232666
 30
0.0
 11
3860.090332
 21
2506.232422
 31
0.0
210
0.0
220
0.0
230
1.0
  0
LINE
  5
712
100
AcDbEntity
  8
0
 62
     7
100
AcDbLine
 10
3860.090332
 20
2506.232422
 30
0.0
 11
4219.770996
 21
2506.232422
 31
0.0
210
0.0
220
0.0
230
1.0
  0
LINE
  5
713
100
AcDbEntity
  8
0
 62
     7
100
AcDbLine
 10
4219.770996
 20
3538.232666
 30
0.0
 11
4219.770996
 21
2506.232422
 31
0.0
210
0.0
220
0.0
230
1.0
  0
LINE
  5
714
100
AcDbEntity
  8
0
 62
     7
100
AcDbLine
 10
3860.090332
 20
3538.232666
 30
0.0
 11
3860.090332
 21
2506.232422
 31
0.0
210
0.0
220
0.0
230
1.0
  0
LINE
  5
715
100
AcDbEntity
  8
0
 62
     7
100
AcDbLine
 10
1800.964478
 20
3538.232666
 30
0.0
 11
4240.964844
 21
3538.232666
 31
0.0
210
0.0
220
0.0
230
1.0
  0
LINE
  5
716
100
AcDbEntity
  8
0
 62
     7
100
AcDbLine
 10
1810.953247
 20
3556.232666
 30
0.0
 11
4230.976074
 21
3556.232666
 31
0.0
210
0.0
220
0.0
230
1.0
  0
LINE
  5
717
100
AcDbEntity
  8
0
 62
     7
 48
0.225
100
AcDbLine
 10
4240.964844
 20
3547.232666
 30
0.0
 11
4240.964844
 21
3538.232666
 31
0.0
210
0.0
220
0.0
230
1.0
  0
LINE
  5
718
100
AcDbEntity
  8
0
 62
     7
 48
0.225
100
AcDbLine
 10
1800.964478
 20
3547.232666
 30
0.0
 11
1800.964478
 21
3538.232666
 31
0.0
210
0.0
220
0.0
230
1.0
  0
LINE
  5
719
100
AcDbEntity
  8
0
 62
     7
 48
0.177405
100
AcDbLine
 10
1800.964478
 20
3547.232666
 30
0.0
 11
1800.964478
 21
3554.328857
 31
0.0
210
0.0
220
0.0
230
1.0
  0
LINE
  5
71A
100
AcDbEntity
  8
0
 62
     7
 48
0.177405
100
AcDbLine
 10
4240.964844
 20
3547.232666
 30
0.0
 11
4240.964844
 21
3554.328857
 31
0.0
210
0.0
220
0.0
230
1.0
  0
POLYLINE
  5
71B
100
AcDbEntity
  8
0
 62
     7
100
AcDb2dPolyline
 66
     1
 10
0.0
 20
0.0
 30
0.0
 71
    13
  0
VERTEX
  5
71C
100
AcDbEntity
  8
0
100
AcDbVertex
100
AcDb2dVertex
 10
4230.976074
 20
3556.232666
 30
0.0
  0
VERTEX
  5
71D
100
AcDbEntity
  8
0
100
AcDbVertex
100
AcDb2dVertex
 10
4231.654785
 20
3556.225098
 30
0.0
  0
VERTEX
  5
71E
100
AcDbEntity
  8
0
100
AcDbVertex
100
AcDb2dVertex
 10
4232.472168
 20
3556.19458
 30
0.0
  0
VERTEX
  5
71F
100
AcDbEntity
  8
0
100
AcDbVertex
100
AcDb2dVertex
 10
4233.518066
 20
3556.121826
 30
0.0
  0
VERTEX
  5
720
100
AcDbEntity
  8
0
100
AcDbVertex
100
AcDb2dVertex
 10
4234.008301
 20
3556.074463
 30
0.0
  0
VERTEX
  5
721
100
AcDbEntity
  8
0
100
AcDbVertex
100
AcDb2dVertex
 10
4235.418945
 20
3555.889404
 30
0.0
  0
VERTEX
  5
722
100
AcDbEntity
  8
0
100
AcDbVertex
100
AcDb2dVertex
 10
4236.144531
 20
3555.764893
 30
0.0
  0
VERTEX
  5
723
100
AcDbEntity
  8
0
100
AcDbVertex
100
AcDb2dVertex
 10
4236.866699
 20
3555.619873
 30
0.0
  0
VERTEX
  5
724
100
AcDbEntity
  8
0
100
AcDbVertex
100
AcDb2dVertex
 10
4237.539063
 20
3555.465088
 30
0.0
  0
VERTEX
  5
725
100
AcDbEntity
  8
0
100
AcDbVertex
100
AcDb2dVertex
 10
4238.20752
 20
3555.291504
 30
0.0
  0
VERTEX
  5
726
100
AcDbEntity
  8
0
100
AcDbVertex
100
AcDb2dVertex
 10
4239.13916
 20
3555.013184
 30
0.0
  0
VERTEX
  5
727
100
AcDbEntity
  8
0
100
AcDbVertex
100
AcDb2dVertex
 10
4240.059082
 20
3554.693359
 30
0.0
  0
VERTEX
  5
728
100
AcDbEntity
  8
0
100
AcDbVertex
100
AcDb2dVertex
 10
4240.964844
 20
3554.328857
 30
0.0
  0
SEQEND
  5
729
100
AcDbEntity
  8
0
  0
POLYLINE
  5
72A
100
AcDbEntity
  8
0
 62
     7
100
AcDb2dPolyline
 66
     1
 10
0.0
 20
0.0
 30
0.0
 71
    13
  0
VERTEX
  5
72B
100
AcDbEntity
  8
0
100
AcDbVertex
100
AcDb2dVertex
 10
1810.953247
 20
3556.232666
 30
0.0
  0
VERTEX
  5
72C
100
AcDbEntity
  8
0
100
AcDbVertex
100
AcDb2dVertex
 10
1810.274414
 20
3556.225098
 30
0.0
  0
VERTEX
  5
72D
100
AcDbEntity
  8
0
100
AcDbVertex
100
AcDb2dVertex
 10
1809.457275
 20
3556.19458
 30
0.0
  0
VERTEX
  5
72E
100
AcDbEntity
  8
0
100
AcDbVertex
100
AcDb2dVertex
 10
1808.411743
 20
3556.121826
 30
0.0
  0
VERTEX
  5
72F
100
AcDbEntity
  8
0
100
AcDbVertex
100
AcDb2dVertex
 10
1807.921875
 20
3556.074463
 30
0.0
  0
VERTEX
  5
730
100
AcDbEntity
  8
0
100
AcDbVertex
100
AcDb2dVertex
 10
1806.510986
 20
3555.889648
 30
0.0
  0
VERTEX
  5
731
100
AcDbEntity
  8
0
100
AcDbVertex
100
AcDb2dVertex
 10
1805.785645
 20
3555.765137
 30
0.0
  0
VERTEX
  5
732
100
AcDbEntity
  8
0
100
AcDbVertex
100
AcDb2dVertex
 10
1805.063354
 20
3555.620117
 30
0.0
  0
VERTEX
  5
733
100
AcDbEntity
  8
0
100
AcDbVertex
100
AcDb2dVertex
 10
1804.390991
 20
3555.465332
 30
0.0
  0
VERTEX
  5
734
100
AcDbEntity
  8
0
100
AcDbVertex
100
AcDb2dVertex
 10
1803.722412
 20
3555.291504
 30
0.0
  0
VERTEX
  5
735
100
AcDbEntity
  8
0
100
AcDbVertex
100
AcDb2dVertex
 10
1802.790405
 20
3555.013428
 30
0.0
  0
VERTEX
  5
736
100
AcDbEntity
  8
0
100
AcDbVertex
100
AcDb2dVertex
 10
1801.870239
 20
3554.693604
 30
0.0
  0
VERTEX
  5
737
100
AcDbEntity
  8
0
100
AcDbVertex
100
AcDb2dVertex
 10
1800.964478
 20
3554.328857
 30
0.0
  0
SEQEND
  5
738
100
AcDbEntity
  8
0
  0
LINE
  5
739
100
AcDbEntity
  8
0
 62
     7
100
AcDbLine
 10
2645.9646
 20
2481.232422
 30
0.0
 11
2518.964355
 21
2481.232422
 31
0.0
210
0.0
220
0.0
230
1.0
  0
LINE
  5
73A
100
AcDbEntity
  8
0
 62
     7
 48
0.175
100
AcDbLine
 10
2518.964355
 20
2488.232422
 30
0.0
 11
2518.964355
 21
2481.232422
 31
0.0
210
0.0
220
0.0
230
1.0
  0
LINE
  5
73B
100
AcDbEntity
  8
0
 62
     7
 48
0.175
100
AcDbLine
 10
2645.9646
 20
2488.232422
 30
0.0
 11
2645.9646
 21
2481.232422
 31
0.0
210
0.0
220
0.0
230
1.0
  0
LINE
  5
73C
100
AcDbEntity
  8
0
 62
     7
 48
0.176777
100
AcDbLine
 10
2523.964355
 20
2476.232422
 30
0.0
 11
2518.964355
 21
2481.232422
 31
0.0
210
0.0
220
0.0
230
1.0
  0
LINE
  5
73D
100
AcDbEntity
  8
0
 62
     7
100
AcDbLine
 10
2640.9646
 20
2476.232422
 30
0.0
 11
2523.964355
 21
2476.232422
 31
0.0
210
0.0
220
0.0
230
1.0
  0
LINE
  5
73E
100
AcDbEntity
  8
0
 62
     7
 48
0.176777
100
AcDbLine
 10
2640.9646
 20
2476.232422
 30
0.0
 11
2645.9646
 21
2481.232422
 31
0.0
210
0.0
220
0.0
230
1.0
  0
LINE
  5
73F
100
AcDbEntity
  8
0
 62
     7
100
AcDbLine
 10
3522.964844
 20
2481.232422
 30
0.0
 11
3395.9646
 21
2481.232422
 31
0.0
210
0.0
220
0.0
230
1.0
  0
LINE
  5
740
100
AcDbEntity
  8
0
 62
     7
 48
0.175
100
AcDbLine
 10
3395.9646
 20
2488.232422
 30
0.0
 11
3395.9646
 21
2481.232422
 31
0.0
210
0.0
220
0.0
230
1.0
  0
LINE
  5
741
100
AcDbEntity
  8
0
 62
     7
 48
0.175
100
AcDbLine
 10
3522.964844
 20
2488.232422
 30
0.0
 11
3522.964844
 21
2481.232422
 31
0.0
210
0.0
220
0.0
230
1.0
  0
LINE
  5
742
100
AcDbEntity
  8
0
 62
     7
 48
0.176777
100
AcDbLine
 10
3400.9646
 20
2476.232422
 30
0.0
 11
3395.9646
 21
2481.232422
 31
0.0
210
0.0
220
0.0
230
1.0
  0
LINE
  5
743
100
AcDbEntity
  8
0
 62
     7
100
AcDbLine
 10
3517.964844
 20
2476.232422
 30
0.0
 11
3400.9646
 21
2476.232422
 31
0.0
210
0.0
220
0.0
230
1.0
  0
LINE
  5
744
100
AcDbEntity
  8
0
 62
     7
 48
0.176777
100
AcDbLine
 10
3517.964844
 20
2476.232422
 30
0.0
 11
3522.964844
 21
2481.232422
 31
0.0
210
0.0
220
0.0
230
1.0
  0
LINE
  5
745
100
AcDbEntity
  8
0
 62
     7
100
AcDbLine
 10
2347.4646
 20
2481.232422
 30
0.0
 11
2225.195557
 21
2481.232422
 31
0.0
210
0.0
220
0.0
230
1.0
  0
LINE
  5
746
100
AcDbEntity
  8
0
 62
     7
 48
0.175
100
AcDbLine
 10
2225.195557
 20
2488.232422
 30
0.0
 11
2225.195557
 21
2481.232422
 31
0.0
210
0.0
220
0.0
230
1.0
  0
LINE
  5
747
100
AcDbEntity
  8
0
 62
     7
 48
0.176777
100
AcDbLine
 10
2230.195557
 20
2476.232422
 30
0.0
 11
2225.195557
 21
2481.232422
 31
0.0
210
0.0
220
0.0
230
1.0
  0
LINE
  5
748
100
AcDbEntity
  8
0
 62
     7
100
AcDbLine
 10
2347.195557
 20
2476.232422
 30
0.0
 11
2230.195557
 21
2476.232422
 31
0.0
210
0.0
220
0.0
230
1.0
  0
LINE
  5
749
100
AcDbEntity
  8
0
 62
     7
 48
0.093127
100
AcDbLine
 10
2347.195557
 20
2476.232422
 30
0.0
 11
2349.82959
 21
2478.866455
 31
0.0
210
0.0
220
0.0
230
1.0
  0
LINE
  5
74A
100
AcDbEntity
  8
0
 62
     7
100
AcDbLine
 10
1990.844604
 20
2481.232422
 30
0.0
 11
1863.844482
 21
2481.232422
 31
0.0
210
0.0
220
0.0
230
1.0
  0
LINE
  5
74B
100
AcDbEntity
  8
0
 62
     7
 48
0.175
100
AcDbLine
 10
1863.844482
 20
2488.232422
 30
0.0
 11
1863.844482
 21
2481.232422
 31
0.0
210
0.0
220
0.0
230
1.0
  0
LINE
  5
74C
100
AcDbEntity
  8
0
 62
     7
 48
0.175
100
AcDbLine
 10
1990.844604
 20
2488.232422
 30
0.0
 11
1990.844604
 21
2481.232422
 31
0.0
210
0.0
220
0.0
230
1.0
  0
LINE
  5
74D
100
AcDbEntity
  8
0
 62
     7
 48
0.176777
100
AcDbLine
 10
1868.844482
 20
2476.232422
 30
0.0
 11
1863.844482
 21
2481.232422
 31
0.0
210
0.0
220
0.0
230
1.0
  0
LINE
  5
74E
100
AcDbEntity
  8
0
 62
     7
100
AcDbLine
 10
1985.844604
 20
2476.232422
 30
0.0
 11
1868.844482
 21
2476.232422
 31
0.0
210
0.0
220
0.0
230
1.0
  0
LINE
  5
74F
100
AcDbEntity
  8
0
 62
     7
 48
0.176777
100
AcDbLine
 10
1985.844604
 20
2476.232422
 30
0.0
 11
1990.844604
 21
2481.232422
 31
0.0
210
0.0
220
0.0
230
1.0
  0
LINE
  5
750
100
AcDbEntity
  8
0
 62
     7
100
AcDbLine
 10
2474.4646
 20
2481.232422
 30
0.0
 11
2347.4646
 21
2481.232422
 31
0.0
210
0.0
220
0.0
230
1.0
  0
LINE
  5
751
100
AcDbEntity
  8
0
 62
     7
 48
0.175
100
AcDbLine
 10
2347.4646
 20
2488.232422
 30
0.0
 11
2347.4646
 21
2481.232422
 31
0.0
210
0.0
220
0.0
230
1.0
  0
LINE
  5
752
100
AcDbEntity
  8
0
 62
     7
 48
0.175
100
AcDbLine
 10
2474.4646
 20
2488.232422
 30
0.0
 11
2474.4646
 21
2481.232422
 31
0.0
210
0.0
220
0.0
230
1.0
  0
LINE
  5
753
100
AcDbEntity
  8
0
 62
     7
 48
0.176777
100
AcDbLine
 10
2352.4646
 20
2476.232422
 30
0.0
 11
2347.4646
 21
2481.232422
 31
0.0
210
0.0
220
0.0
230
1.0
  0
LINE
  5
754
100
AcDbEntity
  8
0
 62
     7
100
AcDbLine
 10
2469.4646
 20
2476.232422
 30
0.0
 11
2352.4646
 21
2476.232422
 31
0.0
210
0.0
220
0.0
230
1.0
  0
LINE
  5
755
100
AcDbEntity
  8
0
 62
     7
 48
0.176777
100
AcDbLine
 10
2469.4646
 20
2476.232422
 30
0.0
 11
2474.4646
 21
2481.232422
 31
0.0
210
0.0
220
0.0
230
1.0
  0
LINE
  5
756
100
AcDbEntity
  8
0
 62
     7
100
AcDbLine
 10
3084.4646
 20
2481.232422
 30
0.0
 11
2957.4646
 21
2481.232422
 31
0.0
210
0.0
220
0.0
230
1.0
  0
LINE
  5
757
100
AcDbEntity
  8
0
 62
     7
 48
0.175
100
AcDbLine
 10
2957.4646
 20
2488.232422
 30
0.0
 11
2957.4646
 21
2481.232422
 31
0.0
210
0.0
220
0.0
230
1.0
  0
LINE
  5
758
100
AcDbEntity
  8
0
 62
     7
 48
0.175
100
AcDbLine
 10
3084.4646
 20
2488.232422
 30
0.0
 11
3084.4646
 21
2481.232422
 31
0.0
210
0.0
220
0.0
230
1.0
  0
LINE
  5
759
100
AcDbEntity
  8
0
 62
     7
 48
0.176777
100
AcDbLine
 10
2962.4646
 20
2476.232422
 30
0.0
 11
2957.4646
 21
2481.232422
 31
0.0
210
0.0
220
0.0
230
1.0
  0
LINE
  5
75A
100
AcDbEntity
  8
0
 62
     7
100
AcDbLine
 10
3079.4646
 20
2476.232422
 30
0.0
 11
2962.4646
 21
2476.232422
 31
0.0
210
0.0
220
0.0
230
1.0
  0
LINE
  5
75B
100
AcDbEntity
  8
0
 62
     7
 48
0.176777
100
AcDbLine
 10
3079.4646
 20
2476.232422
 30
0.0
 11
3084.4646
 21
2481.232422
 31
0.0
210
0.0
220
0.0
230
1.0
  0
LINE
  5
75C
100
AcDbEntity
  8
0
 62
     7
100
AcDbLine
 10
3694.464844
 20
2481.232422
 30
0.0
 11
3567.4646
 21
2481.232422
 31
0.0
210
0.0
220
0.0
230
1.0
  0
LINE
  5
75D
100
AcDbEntity
  8
0
 62
     7
 48
0.175
100
AcDbLine
 10
3567.4646
 20
2488.232422
 30
0.0
 11
3567.4646
 21
2481.232422
 31
0.0
210
0.0
220
0.0
230
1.0
  0
LINE
  5
75E
100
AcDbEntity
  8
0
 62
     7
 48
0.175
100
AcDbLine
 10
3694.464844
 20
2488.232422
 30
0.0
 11
3694.464844
 21
2481.232422
 31
0.0
210
0.0
220
0.0
230
1.0
  0
LINE
  5
75F
100
AcDbEntity
  8
0
 62
     7
 48
0.176777
100
AcDbLine
 10
3572.4646
 20
2476.232422
 30
0.0
 11
3567.4646
 21
2481.232422
 31
0.0
210
0.0
220
0.0
230
1.0
  0
LINE
  5
760
100
AcDbEntity
  8
0
 62
     7
100
AcDbLine
 10
3689.464844
 20
2476.232422
 30
0.0
 11
3572.4646
 21
2476.232422
 31
0.0
210
0.0
220
0.0
230
1.0
  0
LINE
  5
761
100
AcDbEntity
  8
0
 62
     7
 48
0.176777
100
AcDbLine
 10
3689.464844
 20
2476.232422
 30
0.0
 11
3694.464844
 21
2481.232422
 31
0.0
210
0.0
220
0.0
230
1.0
  0
LINE
  5
762
100
AcDbEntity
  8
0
 62
     7
100
AcDbLine
 10
4178.084961
 20
2481.232422
 30
0.0
 11
4051.084717
 21
2481.232422
 31
0.0
210
0.0
220
0.0
230
1.0
  0
LINE
  5
763
100
AcDbEntity
  8
0
 62
     7
 48
0.175
100
AcDbLine
 10
4051.084717
 20
2488.232422
 30
0.0
 11
4051.084717
 21
2481.232422
 31
0.0
210
0.0
220
0.0
230
1.0
  0
LINE
  5
764
100
AcDbEntity
  8
0
 62
     7
 48
0.175
100
AcDbLine
 10
4178.084961
 20
2488.232422
 30
0.0
 11
4178.084961
 21
2481.232422
 31
0.0
210
0.0
220
0.0
230
1.0
  0
LINE
  5
765
100
AcDbEntity
  8
0
 62
     7
 48
0.176777
100
AcDbLine
 10
4056.084717
 20
2476.232422
 30
0.0
 11
4051.084717
 21
2481.232422
 31
0.0
210
0.0
220
0.0
230
1.0
  0
LINE
  5
766
100
AcDbEntity
  8
0
 62
     7
100
AcDbLine
 10
4173.084961
 20
2476.232422
 30
0.0
 11
4056.084717
 21
2476.232422
 31
0.0
210
0.0
220
0.0
230
1.0
  0
LINE
  5
767
100
AcDbEntity
  8
0
 62
     7
 48
0.176777
100
AcDbLine
 10
4173.084961
 20
2476.232422
 30
0.0
 11
4178.084961
 21
2481.232422
 31
0.0
210
0.0
220
0.0
230
1.0
  0
LINE
  5
768
100
AcDbEntity
  8
0
 62
     7
100
AcDbLine
 10
3816.733643
 20
2481.232422
 30
0.0
 11
3694.464844
 21
2481.232422
 31
0.0
210
0.0
220
0.0
230
1.0
  0
LINE
  5
769
100
AcDbEntity
  8
0
 62
     7
 48
0.175
100
AcDbLine
 10
3816.733643
 20
2488.232422
 30
0.0
 11
3816.733643
 21
2481.232422
 31
0.0
210
0.0
220
0.0
230
1.0
  0
LINE
  5
76A
100
AcDbEntity
  8
0
 62
     7
 48
0.09314
100
AcDbLine
 10
3694.733643
 20
2476.232422
 30
0.0
 11
3692.099365
 21
2478.866943
 31
0.0
210
0.0
220
0.0
230
1.0
  0
LINE
  5
76B
100
AcDbEntity
  8
0
 62
     7
100
AcDbLine
 10
3811.733643
 20
2476.232422
 30
0.0
 11
3694.733643
 21
2476.232422
 31
0.0
210
0.0
220
0.0
230
1.0
  0
LINE
  5
76C
100
AcDbEntity
  8
0
 62
     7
 48
0.176777
100
AcDbLine
 10
3811.733643
 20
2476.232422
 30
0.0
 11
3816.733643
 21
2481.232422
 31
0.0
210
0.0
220
0.0
230
1.0
  0
LINE
  5
76D
100
AcDbEntity
  8
0
 62
     7
 48
0.47135
100
AcDbLine
 10
6724.189453
 20
3726.943115
 30
0.0
 11
6743.043457
 21
3726.943115
 31
0.0
210
0.0
220
0.0
230
1.0
  0
POLYLINE
  5
76E
100
AcDbEntity
  8
0
 62
     7
100
AcDb2dPolyline
 66
     1
 10
0.0
 20
0.0
 30
0.0
 71
     3
  0
VERTEX
  5
76F
100
AcDbEntity
  8
0
100
AcDbVertex
100
AcDb2dVertex
 10
6733.616211
 20
3726.943115
 30
0.0
  0
VERTEX
  5
770
100
AcDbEntity
  8
0
100
AcDbVertex
100
AcDb2dVertex
 10
6733.616211
 20
3770.276611
 30
0.0
  0
VERTEX
  5
771
100
AcDbEntity
  8
0
100
AcDbVertex
100
AcDb2dVertex
 10
6721.833008
 20
3756.943115
 30
0.0
  0
SEQEND
  5
772
100
AcDbEntity
  8
0
  0
POLYLINE
  5
773
100
AcDbEntity
  8
0
 62
     7
100
AcDb2dPolyline
 66
     1
 10
0.0
 20
0.0
 30
0.0
 71
    10
  0
VERTEX
  5
774
100
AcDbEntity
  8
0
100
AcDbVertex
100
AcDb2dVertex
 10
6753.043457
 20
3733.609863
 30
0.0
  0
VERTEX
  5
775
100
AcDbEntity
  8
0
100
AcDbVertex
100
AcDb2dVertex
 10
6757.756348
 20
3726.943115
 30
0.0
  0
VERTEX
  5
776
100
AcDbEntity
  8
0
100
AcDbVertex
100
AcDb2dVertex
 10
6771.896484
 20
3726.943115
 30
0.0
  0
VERTEX
  5
777
100
AcDbEntity
  8
0
100
AcDbVertex
100
AcDb2dVertex
 10
6778.966309
 20
3736.943115
 30
0.0
  0
VERTEX
  5
778
100
AcDbEntity
  8
0
100
AcDbVertex
100
AcDb2dVertex
 10
6778.966309
 20
3743.609863
 30
0.0
  0
VERTEX
  5
779
100
AcDbEntity
  8
0
100
AcDbVertex
100
AcDb2dVertex
 10
6771.896484
 20
3753.609863
 30
0.0
  0
VERTEX
  5
77A
100
AcDbEntity
  8
0
100
AcDbVertex
100
AcDb2dVertex
 10
6760.112793
 20
3753.609863
 30
0.0
  0
VERTEX
  5
77B
100
AcDbEntity
  8
0
100
AcDbVertex
100
AcDb2dVertex
 10
6753.043457
 20
3746.943115
 30
0.0
  0
VERTEX
  5
77C
100
AcDbEntity
  8
0
100
AcDbVertex
100
AcDb2dVertex
 10
6753.043457
 20
3770.276611
 30
0.0
  0
VERTEX
  5
77D
100
AcDbEntity
  8
0
100
AcDbVertex
100
AcDb2dVertex
 10
6776.609375
 20
3770.276611
 30
0.0
  0
SEQEND
  5
77E
100
AcDbEntity
  8
0
  0
POLYLINE
  5
77F
100
AcDbEntity
  8
0
 62
     7
100
AcDb2dPolyline
 66
     1
 10
0.0
 20
0.0
 30
0.0
 71
     6
  0
VERTEX
  5
780
100
AcDbEntity
  8
0
100
AcDbVertex
100
AcDb2dVertex
 10
6812.533203
 20
3726.943115
 30
0.0
  0
VERTEX
  5
781
100
AcDbEntity
  8
0
100
AcDbVertex
100
AcDb2dVertex
 10
6812.533203
 20
3770.276611
 30
0.0
  0
VERTEX
  5
782
100
AcDbEntity
  8
0
100
AcDbVertex
100
AcDb2dVertex
 10
6807.819824
 20
3770.276611
 30
0.0
  0
VERTEX
  5
783
100
AcDbEntity
  8
0
100
AcDbVertex
100
AcDb2dVertex
 10
6788.966309
 20
3743.609863
 30
0.0
  0
VERTEX
  5
784
100
AcDbEntity
  8
0
100
AcDbVertex
100
AcDb2dVertex
 10
6788.966309
 20
3736.943115
 30
0.0
  0
VERTEX
  5
785
100
AcDbEntity
  8
0
100
AcDbVertex
100
AcDb2dVertex
 10
6817.246094
 20
3736.943115
 30
0.0
  0
SEQEND
  5
786
100
AcDbEntity
  8
0
  0
POLYLINE
  5
787
100
AcDbEntity
  8
0
 62
     7
100
AcDb2dPolyline
 66
     1
 10
0.0
 20
0.0
 30
0.0
 71
    12
  0
VERTEX
  5
788
100
AcDbEntity
  8
0
100
AcDbVertex
100
AcDb2dVertex
 10
6827.246094
 20
3733.609863
 30
0.0
  0
VERTEX
  5
789
100
AcDbEntity
  8
0
100
AcDbVertex
100
AcDb2dVertex
 10
6831.959961
 20
3726.943115
 30
0.0
  0
VERTEX
  5
78A
100
AcDbEntity
  8
0
100
AcDbVertex
100
AcDb2dVertex
 10
6846.100098
 20
3726.943115
 30
0.0
  0
VERTEX
  5
78B
100
AcDbEntity
  8
0
100
AcDbVertex
100
AcDb2dVertex
 10
6853.169434
 20
3736.943115
 30
0.0
  0
VERTEX
  5
78C
100
AcDbEntity
  8
0
100
AcDbVertex
100
AcDb2dVertex
 10
6853.169434
 20
3760.276611
 30
0.0
  0
VERTEX
  5
78D
100
AcDbEntity
  8
0
100
AcDbVertex
100
AcDb2dVertex
 10
6846.100098
 20
3770.276611
 30
0.0
  0
VERTEX
  5
78E
100
AcDbEntity
  8
0
100
AcDbVertex
100
AcDb2dVertex
 10
6834.316406
 20
3770.276611
 30
0.0
  0
VERTEX
  5
78F
100
AcDbEntity
  8
0
100
AcDbVertex
100
AcDb2dVertex
 10
6827.246094
 20
3760.276611
 30
0.0
  0
VERTEX
  5
790
100
AcDbEntity
  8
0
100
AcDbVertex
100
AcDb2dVertex
 10
6827.246094
 20
3753.609863
 30
0.0
  0
VERTEX
  5
791
100
AcDbEntity
  8
0
100
AcDbVertex
100
AcDb2dVertex
 10
6834.316406
 20
3743.609863
 30
0.0
  0
VERTEX
  5
792
100
AcDbEntity
  8
0
100
AcDbVertex
100
AcDb2dVertex
 10
6846.100098
 20
3743.609863
 30
0.0
  0
VERTEX
  5
793
100
AcDbEntity
  8
0
100
AcDbVertex
100
AcDb2dVertex
 10
6853.169434
 20
3753.609863
 30
0.0
  0
SEQEND
  5
794
100
AcDbEntity
  8
0
  0
LINE
  5
795
100
AcDbEntity
  8
0
 62
     7
100
AcDbLine
 10
6014.501465
 20
3567.232666
 30
0.0
 11
6014.501465
 21
3733.609863
 31
0.0
210
0.0
220
0.0
230
1.0
  0
LINE
  5
796
100
AcDbEntity
  8
0
 62
     7
100
AcDbLine
 10
7560.500977
 20
3567.232666
 30
0.0
 11
7560.500977
 21
3733.609863
 31
0.0
210
0.0
220
0.0
230
1.0
  0
POLYLINE
  5
797
100
AcDbEntity
  8
0
 62
     7
100
AcDb2dPolyline
 66
     1
 10
0.0
 20
0.0
 30
0.0
 71
     3
  0
VERTEX
  5
798
100
AcDbEntity
  8
0
100
AcDbVertex
100
AcDb2dVertex
 10
7521.864746
 20
3703.25708
 30
0.0
  0
VERTEX
  5
799
100
AcDbEntity
  8
0
100
AcDbVertex
100
AcDb2dVertex
 10
7560.500977
 20
3713.609863
 30
0.0
  0
VERTEX
  5
79A
100
AcDbEntity
  8
0
100
AcDbVertex
100
AcDb2dVertex
 10
7521.864746
 20
3723.962646
 30
0.0
  0
SEQEND
  5
79B
100
AcDbEntity
  8
0
  0
POLYLINE
  5
79C
100
AcDbEntity
  8
0
 62
     7
100
AcDb2dPolyline
 66
     1
 10
0.0
 20
0.0
 30
0.0
 71
     3
  0
VERTEX
  5
79D
100
AcDbEntity
  8
0
100
AcDbVertex
100
AcDb2dVertex
 10
6053.138184
 20
3723.962646
 30
0.0
  0
VERTEX
  5
79E
100
AcDbEntity
  8
0
100
AcDbVertex
100
AcDb2dVertex
 10
6014.501465
 20
3713.609863
 30
0.0
  0
VERTEX
  5
79F
100
AcDbEntity
  8
0
100
AcDbVertex
100
AcDb2dVertex
 10
6053.138184
 20
3703.25708
 30
0.0
  0
SEQEND
  5
7A0
100
AcDbEntity
  8
0
  0
LINE
  5
7A1
100
AcDbEntity
  8
0
 62
     7
100
AcDbLine
 10
6014.501465
 20
3713.609863
 30
0.0
 11
7560.500977
 21
3713.609863
 31
0.0
210
0.0
220
0.0
230
1.0
  0
LINE
  5
7A2
100
AcDbEntity
  8
0
 62
     7
100
AcDbLine
 10
6581.924316
 20
2506.232422
 30
0.0
 11
6581.924316
 21
3538.232666
 31
0.0
210
0.0
220
0.0
230
1.0
  0
LINE
  5
7A3
100
AcDbEntity
  8
0
 62
     7
100
AcDbLine
 10
6581.924316
 20
3538.232666
 30
0.0
 11
6993.078613
 21
3538.232666
 31
0.0
210
0.0
220
0.0
230
1.0
  0
LINE
  5
7A4
100
AcDbEntity
  8
0
 62
     7
100
AcDbLine
 10
6993.078613
 20
2506.232422
 30
0.0
 11
6993.078613
 21
3538.232666
 31
0.0
210
0.0
220
0.0
230
1.0
  0
LINE
  5
7A5
100
AcDbEntity
  8
0
 62
     7
100
AcDbLine
 10
6581.924316
 20
2506.232422
 30
0.0
 11
6993.078613
 21
2506.232422
 31
0.0
210
0.0
220
0.0
230
1.0
  0
LINE
  5
7A6
100
AcDbEntity
  8
0
 62
     7
100
AcDbLine
 10
7560.500977
 20
2506.232422
 30
0.0
 11
6014.501465
 21
2506.232422
 31
0.0
210
0.0
220
0.0
230
1.0
  0
LINE
  5
7A7
100
AcDbEntity
  8
0
 62
     7
100
AcDbLine
 10
5577.489746
 20
2488.232422
 30
0.0
 11
6025.115234
 21
2488.232422
 31
0.0
210
0.0
220
0.0
230
1.0
  0
LINE
  5
7A8
100
AcDbEntity
  8
0
 62
     7
100
AcDbLine
 10
7997.513184
 20
2488.232422
 30
0.0
 11
7549.887207
 21
2488.232422
 31
0.0
210
0.0
220
0.0
230
1.0
  0
LINE
  5
7A9
100
AcDbEntity
  8
0
 62
     7
100
AcDbLine
 10
7549.887207
 20
2488.232422
 30
0.0
 11
6025.115234
 21
2488.232422
 31
0.0
210
0.0
220
0.0
230
1.0
  0
POLYLINE
  5
7AA
100
AcDbEntity
  8
0
 62
     7
100
AcDb2dPolyline
 66
     1
 10
0.0
 20
0.0
 30
0.0
 71
     7
  0
VERTEX
  5
7AB
100
AcDbEntity
  8
0
100
AcDbVertex
100
AcDb2dVertex
 10
6014.501465
 20
2497.232422
 30
0.0
  0
VERTEX
  5
7AC
100
AcDbEntity
  8
0
100
AcDbVertex
100
AcDb2dVertex
 10
6014.705566
 20
2495.473633
 30
0.0
  0
VERTEX
  5
7AD
100
AcDbEntity
  8
0
100
AcDbVertex
100
AcDb2dVertex
 10
6015.314941
 20
2493.7771
 30
0.0
  0
VERTEX
  5
7AE
100
AcDbEntity
  8
0
100
AcDbVertex
100
AcDb2dVertex
 10
6016.31543
 20
2492.200684
 30
0.0
  0
VERTEX
  5
7AF
100
AcDbEntity
  8
0
100
AcDbVertex
100
AcDb2dVertex
 10
6017.685059
 20
2490.805664
 30
0.0
  0
VERTEX
  5
7B0
100
AcDbEntity
  8
0
100
AcDbVertex
100
AcDb2dVertex
 10
6021.325684
 20
2488.825684
 30
0.0
  0
VERTEX
  5
7B1
100
AcDbEntity
  8
0
100
AcDbVertex
100
AcDb2dVertex
 10
6025.115234
 20
2488.232666
 30
0.0
  0
SEQEND
  5
7B2
100
AcDbEntity
  8
0
  0
LINE
  5
7B3
100
AcDbEntity
  8
0
 62
     7
 48
0.224994
100
AcDbLine
 10
6014.501465
 20
2497.232666
 30
0.0
 11
6014.501465
 21
2506.232422
 31
0.0
210
0.0
220
0.0
230
1.0
  0
LINE
  5
7B4
100
AcDbEntity
  8
0
 62
     7
 48
0.224994
100
AcDbLine
 10
7560.500977
 20
2497.232666
 30
0.0
 11
7560.500977
 21
2506.232422
 31
0.0
210
0.0
220
0.0
230
1.0
  0
POLYLINE
  5
7B5
100
AcDbEntity
  8
0
 62
     7
100
AcDb2dPolyline
 66
     1
 10
0.0
 20
0.0
 30
0.0
 71
     8
  0
VERTEX
  5
7B6
100
AcDbEntity
  8
0
100
AcDbVertex
100
AcDb2dVertex
 10
7549.887207
 20
2488.232666
 30
0.0
  0
VERTEX
  5
7B7
100
AcDbEntity
  8
0
100
AcDbVertex
100
AcDb2dVertex
 10
7552.125977
 20
2488.435059
 30
0.0
  0
VERTEX
  5
7B8
100
AcDbEntity
  8
0
100
AcDbVertex
100
AcDb2dVertex
 10
7554.26416
 20
2489.033203
 30
0.0
  0
VERTEX
  5
7B9
100
AcDbEntity
  8
0
100
AcDbVertex
100
AcDb2dVertex
 10
7556.183594
 20
2489.987305
 30
0.0
  0
VERTEX
  5
7BA
100
AcDbEntity
  8
0
100
AcDbVertex
100
AcDb2dVertex
 10
7557.807617
 20
2491.241455
 30
0.0
  0
VERTEX
  5
7BB
100
AcDbEntity
  8
0
100
AcDbVertex
100
AcDb2dVertex
 10
7559.075195
 20
2492.727539
 30
0.0
  0
VERTEX
  5
7BC
100
AcDbEntity
  8
0
100
AcDbVertex
100
AcDb2dVertex
 10
7559.951172
 20
2494.373535
 30
0.0
  0
VERTEX
  5
7BD
100
AcDbEntity
  8
0
100
AcDbVertex
100
AcDb2dVertex
 10
7560.500977
 20
2497.232422
 30
0.0
  0
SEQEND
  5
7BE
100
AcDbEntity
  8
0
  0
LINE
  5
7BF
100
AcDbEntity
  8
0
 62
     7
 48
0.224994
100
AcDbLine
 10
5567.500977
 20
2497.232666
 30
0.0
 11
5567.500977
 21
2506.232422
 31
0.0
210
0.0
220
0.0
230
1.0
  0
LINE
  5
7C0
100
AcDbEntity
  8
0
 62
     7
 48
0.177411
100
AcDbLine
 10
5567.500977
 20
2497.232666
 30
0.0
 11
5567.500977
 21
2490.13623
 31
0.0
210
0.0
220
0.0
230
1.0
  0
LINE
  5
7C1
100
AcDbEntity
  8
0
 62
     7
 48
0.224994
100
AcDbLine
 10
8007.501465
 20
2497.232666
 30
0.0
 11
8007.501465
 21
2506.232422
 31
0.0
210
0.0
220
0.0
230
1.0
  0
LINE
  5
7C2
100
AcDbEntity
  8
0
 62
     7
 48
0.177411
100
AcDbLine
 10
8007.501465
 20
2490.13623
 30
0.0
 11
8007.501465
 21
2497.232666
 31
0.0
210
0.0
220
0.0
230
1.0
  0
POLYLINE
  5
7C3
100
AcDbEntity
  8
0
 62
     7
100
AcDb2dPolyline
 66
     1
 10
0.0
 20
0.0
 30
0.0
 71
    13
  0
VERTEX
  5
7C4
100
AcDbEntity
  8
0
100
AcDbVertex
100
AcDb2dVertex
 10
7997.513184
 20
2488.232422
 30
0.0
  0
VERTEX
  5
7C5
100
AcDbEntity
  8
0
100
AcDbVertex
100
AcDb2dVertex
 10
7998.191895
 20
2488.240479
 30
0.0
  0
VERTEX
  5
7C6
100
AcDbEntity
  8
0
100
AcDbVertex
100
AcDb2dVertex
 10
7999.008789
 20
2488.270752
 30
0.0
  0
VERTEX
  5
7C7
100
AcDbEntity
  8
0
100
AcDbVertex
100
AcDb2dVertex
 10
8000.054688
 20
2488.343506
 30
0.0
  0
VERTEX
  5
7C8
100
AcDbEntity
  8
0
100
AcDbVertex
100
AcDb2dVertex
 10
8000.54541
 20
2488.390869
 30
0.0
  0
VERTEX
  5
7C9
100
AcDbEntity
  8
0
100
AcDbVertex
100
AcDb2dVertex
 10
8001.955566
 20
2488.575928
 30
0.0
  0
VERTEX
  5
7CA
100
AcDbEntity
  8
0
100
AcDbVertex
100
AcDb2dVertex
 10
8002.681641
 20
2488.700439
 30
0.0
  0
VERTEX
  5
7CB
100
AcDbEntity
  8
0
100
AcDbVertex
100
AcDb2dVertex
 10
8003.40332
 20
2488.845459
 30
0.0
  0
VERTEX
  5
7CC
100
AcDbEntity
  8
0
100
AcDbVertex
100
AcDb2dVertex
 10
8004.076172
 20
2489.000244
 30
0.0
  0
VERTEX
  5
7CD
100
AcDbEntity
  8
0
100
AcDbVertex
100
AcDb2dVertex
 10
8004.744629
 20
2489.174072
 30
0.0
  0
VERTEX
  5
7CE
100
AcDbEntity
  8
0
100
AcDbVertex
100
AcDb2dVertex
 10
8005.675781
 20
2489.452148
 30
0.0
  0
VERTEX
  5
7CF
100
AcDbEntity
  8
0
100
AcDbVertex
100
AcDb2dVertex
 10
8006.596191
 20
2489.771729
 30
0.0
  0
VERTEX
  5
7D0
100
AcDbEntity
  8
0
100
AcDbVertex
100
AcDb2dVertex
 10
8007.501465
 20
2490.13623
 30
0.0
  0
SEQEND
  5
7D1
100
AcDbEntity
  8
0
  0
POLYLINE
  5
7D2
100
AcDbEntity
  8
0
 62
     7
100
AcDb2dPolyline
 66
     1
 10
0.0
 20
0.0
 30
0.0
 71
    13
  0
VERTEX
  5
7D3
100
AcDbEntity
  8
0
100
AcDbVertex
100
AcDb2dVertex
 10
5577.489746
 20
2488.232422
 30
0.0
  0
VERTEX
  5
7D4
100
AcDbEntity
  8
0
100
AcDbVertex
100
AcDb2dVertex
 10
5576.811035
 20
2488.240479
 30
0.0
  0
VERTEX
  5
7D5
100
AcDbEntity
  8
0
100
AcDbVertex
100
AcDb2dVertex
 10
5575.994141
 20
2488.270752
 30
0.0
  0
VERTEX
  5
7D6
100
AcDbEntity
  8
0
100
AcDbVertex
100
AcDb2dVertex
 10
5574.94873
 20
2488.343506
 30
0.0
  0
VERTEX
  5
7D7
100
AcDbEntity
  8
0
100
AcDbVertex
100
AcDb2dVertex
 10
5574.458496
 20
2488.390625
 30
0.0
  0
VERTEX
  5
7D8
100
AcDbEntity
  8
0
100
AcDbVertex
100
AcDb2dVertex
 10
5573.047363
 20
2488.575928
 30
0.0
  0
VERTEX
  5
7D9
100
AcDbEntity
  8
0
100
AcDbVertex
100
AcDb2dVertex
 10
5572.322266
 20
2488.700439
 30
0.0
  0
VERTEX
  5
7DA
100
AcDbEntity
  8
0
100
AcDbVertex
100
AcDb2dVertex
 10
5571.600098
 20
2488.845215
 30
0.0
  0
VERTEX
  5
7DB
100
AcDbEntity
  8
0
100
AcDbVertex
100
AcDb2dVertex
 10
5570.927734
 20
2489.0
 30
0.0
  0
VERTEX
  5
7DC
100
AcDbEntity
  8
0
100
AcDbVertex
100
AcDb2dVertex
 10
5570.259277
 20
2489.173828
 30
0.0
  0
VERTEX
  5
7DD
100
AcDbEntity
  8
0
100
AcDbVertex
100
AcDb2dVertex
 10
5569.327148
 20
2489.451904
 30
0.0
  0
VERTEX
  5
7DE
100
AcDbEntity
  8
0
100
AcDbVertex
100
AcDb2dVertex
 10
5568.406738
 20
2489.771729
 30
0.0
  0
VERTEX
  5
7DF
100
AcDbEntity
  8
0
100
AcDbVertex
100
AcDb2dVertex
 10
5567.500977
 20
2490.13623
 30
0.0
  0
SEQEND
  5
7E0
100
AcDbEntity
  8
0
  0
LINE
  5
7E1
100
AcDbEntity
  8
0
 62
     7
100
AcDbLine
 10
6993.078613
 20
2506.232422
 30
0.0
 11
6993.078613
 21
3538.232666
 31
0.0
210
0.0
220
0.0
230
1.0
  0
LINE
  5
7E2
100
AcDbEntity
  8
0
 62
     7
 48
0.485571
100
AcDbLine
 10
6993.078613
 20
3538.232666
 30
0.0
 11
7012.501465
 21
3538.232666
 31
0.0
210
0.0
220
0.0
230
1.0
  0
LINE
  5
7E3
100
AcDbEntity
  8
0
 62
     7
100
AcDbLine
 10
7012.501465
 20
2506.232422
 30
0.0
 11
7012.501465
 21
3538.232666
 31
0.0
210
0.0
220
0.0
230
1.0
  0
LINE
  5
7E4
100
AcDbEntity
  8
0
 62
     7
 48
0.485571
100
AcDbLine
 10
6993.078613
 20
2506.232422
 30
0.0
 11
7012.501465
 21
2506.232422
 31
0.0
210
0.0
220
0.0
230
1.0
  0
LINE
  5
7E5
100
AcDbEntity
  8
0
 62
     7
100
AcDbLine
 10
7540.29834
 20
2506.232422
 30
0.0
 11
7540.29834
 21
3538.232666
 31
0.0
210
0.0
220
0.0
230
1.0
  0
LINE
  5
7E6
100
AcDbEntity
  8
0
 62
     7
100
AcDbLine
 10
7540.29834
 20
3538.232666
 30
0.0
 11
7560.500977
 21
3538.232666
 31
0.0
210
0.0
220
0.0
230
1.0
  0
LINE
  5
7E7
100
AcDbEntity
  8
0
 62
     7
100
AcDbLine
 10
7560.500977
 20
2506.232422
 30
0.0
 11
7560.500977
 21
3538.232666
 31
0.0
210
0.0
220
0.0
230
1.0
  0
LINE
  5
7E8
100
AcDbEntity
  8
0
 62
     7
100
AcDbLine
 10
7540.29834
 20
2506.232422
 30
0.0
 11
7560.500977
 21
2506.232422
 31
0.0
210
0.0
220
0.0
230
1.0
  0
LINE
  5
7E9
100
AcDbEntity
  8
0
 62
     7
100
AcDbLine
 10
8007.501465
 20
2506.232422
 30
0.0
 11
8007.501465
 21
3538.232666
 31
0.0
210
0.0
220
0.0
230
1.0
  0
POLYLINE
  5
7EA
100
AcDbEntity
  8
0
 62
     7
100
AcDb2dPolyline
 66
     1
 10
0.0
 20
0.0
 30
0.0
 71
    11
  0
VERTEX
  5
7EB
100
AcDbEntity
  8
0
100
AcDbVertex
100
AcDb2dVertex
 10
7600.259277
 20
2555.232666
 30
0.0
  0
VERTEX
  5
7EC
100
AcDbEntity
  8
0
100
AcDbVertex
100
AcDb2dVertex
 10
7599.858398
 20
2555.175049
 30
0.0
  0
VERTEX
  5
7ED
100
AcDbEntity
  8
0
100
AcDbVertex
100
AcDb2dVertex
 10
7599.463379
 20
2555.001953
 30
0.0
  0
VERTEX
  5
7EE
100
AcDbEntity
  8
0
100
AcDbVertex
100
AcDb2dVertex
 10
7599.078613
 20
2554.70874
 30
0.0
  0
VERTEX
  5
7EF
100
AcDbEntity
  8
0
100
AcDbVertex
100
AcDb2dVertex
 10
7598.381348
 20
2553.760498
 30
0.0
  0
VERTEX
  5
7F0
100
AcDbEntity
  8
0
100
AcDbVertex
100
AcDb2dVertex
 10
7597.848633
 20
2552.309082
 30
0.0
  0
VERTEX
  5
7F1
100
AcDbEntity
  8
0
100
AcDbVertex
100
AcDb2dVertex
 10
7597.611816
 20
2550.470459
 30
0.0
  0
VERTEX
  5
7F2
100
AcDbEntity
  8
0
100
AcDbVertex
100
AcDb2dVertex
 10
7597.765137
 20
2548.541992
 30
0.0
  0
VERTEX
  5
7F3
100
AcDbEntity
  8
0
100
AcDbVertex
100
AcDb2dVertex
 10
7598.283691
 20
2546.89917
 30
0.0
  0
VERTEX
  5
7F4
100
AcDbEntity
  8
0
100
AcDbVertex
100
AcDb2dVertex
 10
7599.032227
 20
2545.80127
 30
0.0
  0
VERTEX
  5
7F5
100
AcDbEntity
  8
0
100
AcDbVertex
100
AcDb2dVertex
 10
7600.259277
 20
2545.232666
 30
0.0
  0
SEQEND
  5
7F6
100
AcDbEntity
  8
0
  0
POLYLINE
  5
7F7
100
AcDbEntity
  8
0
 62
     7
100
AcDb2dPolyline
 66
     1
 10
0.0
 20
0.0
 30
0.0
 71
     5
  0
VERTEX
  5
7F8
100
AcDbEntity
  8
0
100
AcDbVertex
100
AcDb2dVertex
 10
7602.910156
 20
2550.232666
 30
0.0
  0
VERTEX
  5
7F9
100
AcDbEntity
  8
0
100
AcDbVertex
100
AcDb2dVertex
 10
7602.708008
 20
2552.145508
 30
0.0
  0
VERTEX
  5
7FA
100
AcDbEntity
  8
0
100
AcDbVertex
100
AcDb2dVertex
 10
7602.152832
 20
2553.731934
 30
0.0
  0
VERTEX
  5
7FB
100
AcDbEntity
  8
0
100
AcDbVertex
100
AcDb2dVertex
 10
7601.388184
 20
2554.756592
 30
0.0
  0
VERTEX
  5
7FC
100
AcDbEntity
  8
0
100
AcDbVertex
100
AcDb2dVertex
 10
7600.259277
 20
2555.232666
 30
0.0
  0
SEQEND
  5
7FD
100
AcDbEntity
  8
0
  0
POLYLINE
  5
7FE
100
AcDbEntity
  8
0
 62
     7
100
AcDb2dPolyline
 66
     1
 10
0.0
 20
0.0
 30
0.0
 71
     7
  0
VERTEX
  5
7FF
100
AcDbEntity
  8
0
100
AcDbVertex
100
AcDb2dVertex
 10
7600.259277
 20
2545.232666
 30
0.0
  0
VERTEX
  5
800
100
AcDbEntity
  8
0
100
AcDbVertex
100
AcDb2dVertex
 10
7600.660645
 20
2545.290039
 30
0.0
  0
VERTEX
  5
801
100
AcDbEntity
  8
0
100
AcDbVertex
100
AcDb2dVertex
 10
7601.055176
 20
2545.463379
 30
0.0
  0
VERTEX
  5
802
100
AcDbEntity
  8
0
100
AcDbVertex
100
AcDb2dVertex
 10
7601.44043
 20
2545.756348
 30
0.0
  0
VERTEX
  5
803
100
AcDbEntity
  8
0
100
AcDbVertex
100
AcDb2dVertex
 10
7602.137695
 20
2546.70459
 30
0.0
  0
VERTEX
  5
804
100
AcDbEntity
  8
0
100
AcDbVertex
100
AcDb2dVertex
 10
7602.67041
 20
2548.156006
 30
0.0
  0
VERTEX
  5
805
100
AcDbEntity
  8
0
100
AcDbVertex
100
AcDb2dVertex
 10
7602.910156
 20
2550.232666
 30
0.0
  0
SEQEND
  5
806
100
AcDbEntity
  8
0
  0
POLYLINE
  5
807
100
AcDbEntity
  8
0
 62
     7
100
AcDb2dPolyline
 66
     1
 10
0.0
 20
0.0
 30
0.0
 71
    11
  0
VERTEX
  5
808
100
AcDbEntity
  8
0
100
AcDbVertex
100
AcDb2dVertex
 10
7600.259277
 20
3263.232666
 30
0.0
  0
VERTEX
  5
809
100
AcDbEntity
  8
0
100
AcDbVertex
100
AcDb2dVertex
 10
7599.858398
 20
3263.175293
 30
0.0
  0
VERTEX
  5
80A
100
AcDbEntity
  8
0
100
AcDbVertex
100
AcDb2dVertex
 10
7599.463379
 20
3263.001953
 30
0.0
  0
VERTEX
  5
80B
100
AcDbEntity
  8
0
100
AcDbVertex
100
AcDb2dVertex
 10
7599.078613
 20
3262.708984
 30
0.0
  0
VERTEX
  5
80C
100
AcDbEntity
  8
0
100
AcDbVertex
100
AcDb2dVertex
 10
7598.381348
 20
3261.760498
 30
0.0
  0
VERTEX
  5
80D
100
AcDbEntity
  8
0
100
AcDbVertex
100
AcDb2dVertex
 10
7597.848633
 20
3260.309082
 30
0.0
  0
VERTEX
  5
80E
100
AcDbEntity
  8
0
100
AcDbVertex
100
AcDb2dVertex
 10
7597.611816
 20
3258.470459
 30
0.0
  0
VERTEX
  5
80F
100
AcDbEntity
  8
0
100
AcDbVertex
100
AcDb2dVertex
 10
7597.765137
 20
3256.54248
 30
0.0
  0
VERTEX
  5
810
100
AcDbEntity
  8
0
100
AcDbVertex
100
AcDb2dVertex
 10
7598.283691
 20
3254.899414
 30
0.0
  0
VERTEX
  5
811
100
AcDbEntity
  8
0
100
AcDbVertex
100
AcDb2dVertex
 10
7599.032227
 20
3253.80127
 30
0.0
  0
VERTEX
  5
812
100
AcDbEntity
  8
0
100
AcDbVertex
100
AcDb2dVertex
 10
7600.259277
 20
3253.232666
 30
0.0
  0
SEQEND
  5
813
100
AcDbEntity
  8
0
  0
POLYLINE
  5
814
100
AcDbEntity
  8
0
 62
     7
100
AcDb2dPolyline
 66
     1
 10
0.0
 20
0.0
 30
0.0
 71
     5
  0
VERTEX
  5
815
100
AcDbEntity
  8
0
100
AcDbVertex
100
AcDb2dVertex
 10
7602.910156
 20
3258.232666
 30
0.0
  0
VERTEX
  5
816
100
AcDbEntity
  8
0
100
AcDbVertex
100
AcDb2dVertex
 10
7602.708008
 20
3260.145996
 30
0.0
  0
VERTEX
  5
817
100
AcDbEntity
  8
0
100
AcDbVertex
100
AcDb2dVertex
 10
7602.152832
 20
3261.732178
 30
0.0
  0
VERTEX
  5
818
100
AcDbEntity
  8
0
100
AcDbVertex
100
AcDb2dVertex
 10
7601.388184
 20
3262.756592
 30
0.0
  0
VERTEX
  5
819
100
AcDbEntity
  8
0
100
AcDbVertex
100
AcDb2dVertex
 10
7600.259277
 20
3263.232666
 30
0.0
  0
SEQEND
  5
81A
100
AcDbEntity
  8
0
  0
POLYLINE
  5
81B
100
AcDbEntity
  8
0
 62
     7
100
AcDb2dPolyline
 66
     1
 10
0.0
 20
0.0
 30
0.0
 71
     7
  0
VERTEX
  5
81C
100
AcDbEntity
  8
0
100
AcDbVertex
100
AcDb2dVertex
 10
7600.259277
 20
3253.232666
 30
0.0
  0
VERTEX
  5
81D
100
AcDbEntity
  8
0
100
AcDbVertex
100
AcDb2dVertex
 10
7600.660645
 20
3253.290039
 30
0.0
  0
VERTEX
  5
81E
100
AcDbEntity
  8
0
100
AcDbVertex
100
AcDb2dVertex
 10
7601.055176
 20
3253.463379
 30
0.0
  0
VERTEX
  5
81F
100
AcDbEntity
  8
0
100
AcDbVertex
100
AcDb2dVertex
 10
7601.44043
 20
3253.756348
 30
0.0
  0
VERTEX
  5
820
100
AcDbEntity
  8
0
100
AcDbVertex
100
AcDb2dVertex
 10
7602.137695
 20
3254.70459
 30
0.0
  0
VERTEX
  5
821
100
AcDbEntity
  8
0
100
AcDbVertex
100
AcDb2dVertex
 10
7602.67041
 20
3256.156006
 30
0.0
  0
VERTEX
  5
822
100
AcDbEntity
  8
0
100
AcDbVertex
100
AcDb2dVertex
 10
7602.910156
 20
3258.232666
 30
0.0
  0
SEQEND
  5
823
100
AcDbEntity
  8
0
  0
POLYLINE
  5
824
100
AcDbEntity
  8
0
 62
     7
100
AcDb2dPolyline
 66
     1
 10
0.0
 20
0.0
 30
0.0
 71
    11
  0
VERTEX
  5
825
100
AcDbEntity
  8
0
100
AcDbVertex
100
AcDb2dVertex
 10
7600.259277
 20
3499.23291
 30
0.0
  0
VERTEX
  5
826
100
AcDbEntity
  8
0
100
AcDbVertex
100
AcDb2dVertex
 10
7599.858398
 20
3499.175537
 30
0.0
  0
VERTEX
  5
827
100
AcDbEntity
  8
0
100
AcDbVertex
100
AcDb2dVertex
 10
7599.463379
 20
3499.002197
 30
0.0
  0
VERTEX
  5
828
100
AcDbEntity
  8
0
100
AcDbVertex
100
AcDb2dVertex
 10
7599.078613
 20
3498.709229
 30
0.0
  0
VERTEX
  5
829
100
AcDbEntity
  8
0
100
AcDbVertex
100
AcDb2dVertex
 10
7598.381348
 20
3497.760986
 30
0.0
  0
VERTEX
  5
82A
100
AcDbEntity
  8
0
100
AcDbVertex
100
AcDb2dVertex
 10
7597.848633
 20
3496.30957
 30
0.0
  0
VERTEX
  5
82B
100
AcDbEntity
  8
0
100
AcDbVertex
100
AcDb2dVertex
 10
7597.611816
 20
3494.470459
 30
0.0
  0
VERTEX
  5
82C
100
AcDbEntity
  8
0
100
AcDbVertex
100
AcDb2dVertex
 10
7597.765137
 20
3492.54248
 30
0.0
  0
VERTEX
  5
82D
100
AcDbEntity
  8
0
100
AcDbVertex
100
AcDb2dVertex
 10
7598.283691
 20
3490.899414
 30
0.0
  0
VERTEX
  5
82E
100
AcDbEntity
  8
0
100
AcDbVertex
100
AcDb2dVertex
 10
7599.032227
 20
3489.80127
 30
0.0
  0
VERTEX
  5
82F
100
AcDbEntity
  8
0
100
AcDbVertex
100
AcDb2dVertex
 10
7600.259277
 20
3489.23291
 30
0.0
  0
SEQEND
  5
830
100
AcDbEntity
  8
0
  0
POLYLINE
  5
831
100
AcDbEntity
  8
0
 62
     7
100
AcDb2dPolyline
 66
     1
 10
0.0
 20
0.0
 30
0.0
 71
     5
  0
VERTEX
  5
832
100
AcDbEntity
  8
0
100
AcDbVertex
100
AcDb2dVertex
 10
7602.910156
 20
3494.23291
 30
0.0
  0
VERTEX
  5
833
100
AcDbEntity
  8
0
100
AcDbVertex
100
AcDb2dVertex
 10
7602.708008
 20
3496.145996
 30
0.0
  0
VERTEX
  5
834
100
AcDbEntity
  8
0
100
AcDbVertex
100
AcDb2dVertex
 10
7602.152832
 20
3497.732178
 30
0.0
  0
VERTEX
  5
835
100
AcDbEntity
  8
0
100
AcDbVertex
100
AcDb2dVertex
 10
7601.388184
 20
3498.756836
 30
0.0
  0
VERTEX
  5
836
100
AcDbEntity
  8
0
100
AcDbVertex
100
AcDb2dVertex
 10
7600.259277
 20
3499.23291
 30
0.0
  0
SEQEND
  5
837
100
AcDbEntity
  8
0
  0
POLYLINE
  5
838
100
AcDbEntity
  8
0
 62
     7
100
AcDb2dPolyline
 66
     1
 10
0.0
 20
0.0
 30
0.0
 71
     7
  0
VERTEX
  5
839
100
AcDbEntity
  8
0
100
AcDbVertex
100
AcDb2dVertex
 10
7600.259277
 20
3489.23291
 30
0.0
  0
VERTEX
  5
83A
100
AcDbEntity
  8
0
100
AcDbVertex
100
AcDb2dVertex
 10
7600.660645
 20
3489.290283
 30
0.0
  0
VERTEX
  5
83B
100
AcDbEntity
  8
0
100
AcDbVertex
100
AcDb2dVertex
 10
7601.055176
 20
3489.463623
 30
0.0
  0
VERTEX
  5
83C
100
AcDbEntity
  8
0
100
AcDbVertex
100
AcDb2dVertex
 10
7601.44043
 20
3489.756592
 30
0.0
  0
VERTEX
  5
83D
100
AcDbEntity
  8
0
100
AcDbVertex
100
AcDb2dVertex
 10
7602.137695
 20
3490.70459
 30
0.0
  0
VERTEX
  5
83E
100
AcDbEntity
  8
0
100
AcDbVertex
100
AcDb2dVertex
 10
7602.67041
 20
3492.156494
 30
0.0
  0
VERTEX
  5
83F
100
AcDbEntity
  8
0
100
AcDbVertex
100
AcDb2dVertex
 10
7602.910156
 20
3494.23291
 30
0.0
  0
SEQEND
  5
840
100
AcDbEntity
  8
0
  0
POLYLINE
  5
841
100
AcDbEntity
  8
0
 62
     7
100
AcDb2dPolyline
 66
     1
 10
0.0
 20
0.0
 30
0.0
 71
    11
  0
VERTEX
  5
842
100
AcDbEntity
  8
0
100
AcDbVertex
100
AcDb2dVertex
 10
7600.259277
 20
2781.232666
 30
0.0
  0
VERTEX
  5
843
100
AcDbEntity
  8
0
100
AcDbVertex
100
AcDb2dVertex
 10
7600.660645
 20
2781.290039
 30
0.0
  0
VERTEX
  5
844
100
AcDbEntity
  8
0
100
AcDbVertex
100
AcDb2dVertex
 10
7601.055176
 20
2781.463379
 30
0.0
  0
VERTEX
  5
845
100
AcDbEntity
  8
0
100
AcDbVertex
100
AcDb2dVertex
 10
7601.44043
 20
2781.756348
 30
0.0
  0
VERTEX
  5
846
100
AcDbEntity
  8
0
100
AcDbVertex
100
AcDb2dVertex
 10
7602.137695
 20
2782.704346
 30
0.0
  0
VERTEX
  5
847
100
AcDbEntity
  8
0
100
AcDbVertex
100
AcDb2dVertex
 10
7602.67041
 20
2784.155762
 30
0.0
  0
VERTEX
  5
848
100
AcDbEntity
  8
0
100
AcDbVertex
100
AcDb2dVertex
 10
7602.907227
 20
2785.994873
 30
0.0
  0
VERTEX
  5
849
100
AcDbEntity
  8
0
100
AcDbVertex
100
AcDb2dVertex
 10
7602.753906
 20
2787.922852
 30
0.0
  0
VERTEX
  5
84A
100
AcDbEntity
  8
0
100
AcDbVertex
100
AcDb2dVertex
 10
7602.235352
 20
2789.565918
 30
0.0
  0
VERTEX
  5
84B
100
AcDbEntity
  8
0
100
AcDbVertex
100
AcDb2dVertex
 10
7601.486816
 20
2790.664063
 30
0.0
  0
VERTEX
  5
84C
100
AcDbEntity
  8
0
100
AcDbVertex
100
AcDb2dVertex
 10
7600.259277
 20
2791.232666
 30
0.0
  0
SEQEND
  5
84D
100
AcDbEntity
  8
0
  0
POLYLINE
  5
84E
100
AcDbEntity
  8
0
 62
     7
100
AcDb2dPolyline
 66
     1
 10
0.0
 20
0.0
 30
0.0
 71
     5
  0
VERTEX
  5
84F
100
AcDbEntity
  8
0
100
AcDbVertex
100
AcDb2dVertex
 10
7597.608887
 20
2786.232666
 30
0.0
  0
VERTEX
  5
850
100
AcDbEntity
  8
0
100
AcDbVertex
100
AcDb2dVertex
 10
7597.810547
 20
2784.319336
 30
0.0
  0
VERTEX
  5
851
100
AcDbEntity
  8
0
100
AcDbVertex
100
AcDb2dVertex
 10
7598.366211
 20
2782.733154
 30
0.0
  0
VERTEX
  5
852
100
AcDbEntity
  8
0
100
AcDbVertex
100
AcDb2dVertex
 10
7599.130859
 20
2781.70874
 30
0.0
  0
VERTEX
  5
853
100
AcDbEntity
  8
0
100
AcDbVertex
100
AcDb2dVertex
 10
7600.259277
 20
2781.232666
 30
0.0
  0
SEQEND
  5
854
100
AcDbEntity
  8
0
  0
POLYLINE
  5
855
100
AcDbEntity
  8
0
 62
     7
100
AcDb2dPolyline
 66
     1
 10
0.0
 20
0.0
 30
0.0
 71
     7
  0
VERTEX
  5
856
100
AcDbEntity
  8
0
100
AcDbVertex
100
AcDb2dVertex
 10
7600.259277
 20
2791.232666
 30
0.0
  0
VERTEX
  5
857
100
AcDbEntity
  8
0
100
AcDbVertex
100
AcDb2dVertex
 10
7599.858398
 20
2791.175293
 30
0.0
  0
VERTEX
  5
858
100
AcDbEntity
  8
0
100
AcDbVertex
100
AcDb2dVertex
 10
7599.463379
 20
2791.001953
 30
0.0
  0
VERTEX
  5
859
100
AcDbEntity
  8
0
100
AcDbVertex
100
AcDb2dVertex
 10
7599.078613
 20
2790.708984
 30
0.0
  0
VERTEX
  5
85A
100
AcDbEntity
  8
0
100
AcDbVertex
100
AcDb2dVertex
 10
7598.381348
 20
2789.760742
 30
0.0
  0
VERTEX
  5
85B
100
AcDbEntity
  8
0
100
AcDbVertex
100
AcDb2dVertex
 10
7597.848633
 20
2788.309082
 30
0.0
  0
VERTEX
  5
85C
100
AcDbEntity
  8
0
100
AcDbVertex
100
AcDb2dVertex
 10
7597.608887
 20
2786.232666
 30
0.0
  0
SEQEND
  5
85D
100
AcDbEntity
  8
0
  0
POLYLINE
  5
85E
100
AcDbEntity
  8
0
 62
     7
100
AcDb2dPolyline
 66
     1
 10
0.0
 20
0.0
 30
0.0
 71
    11
  0
VERTEX
  5
85F
100
AcDbEntity
  8
0
100
AcDbVertex
100
AcDb2dVertex
 10
7600.259277
 20
3027.232666
 30
0.0
  0
VERTEX
  5
860
100
AcDbEntity
  8
0
100
AcDbVertex
100
AcDb2dVertex
 10
7599.858398
 20
3027.175293
 30
0.0
  0
VERTEX
  5
861
100
AcDbEntity
  8
0
100
AcDbVertex
100
AcDb2dVertex
 10
7599.463379
 20
3027.001953
 30
0.0
  0
VERTEX
  5
862
100
AcDbEntity
  8
0
100
AcDbVertex
100
AcDb2dVertex
 10
7599.078613
 20
3026.708984
 30
0.0
  0
VERTEX
  5
863
100
AcDbEntity
  8
0
100
AcDbVertex
100
AcDb2dVertex
 10
7598.381348
 20
3025.760742
 30
0.0
  0
VERTEX
  5
864
100
AcDbEntity
  8
0
100
AcDbVertex
100
AcDb2dVertex
 10
7597.848633
 20
3024.309326
 30
0.0
  0
VERTEX
  5
865
100
AcDbEntity
  8
0
100
AcDbVertex
100
AcDb2dVertex
 10
7597.611816
 20
3022.470459
 30
0.0
  0
VERTEX
  5
866
100
AcDbEntity
  8
0
100
AcDbVertex
100
AcDb2dVertex
 10
7597.765137
 20
3020.542236
 30
0.0
  0
VERTEX
  5
867
100
AcDbEntity
  8
0
100
AcDbVertex
100
AcDb2dVertex
 10
7598.283691
 20
3018.89917
 30
0.0
  0
VERTEX
  5
868
100
AcDbEntity
  8
0
100
AcDbVertex
100
AcDb2dVertex
 10
7599.032227
 20
3017.80127
 30
0.0
  0
VERTEX
  5
869
100
AcDbEntity
  8
0
100
AcDbVertex
100
AcDb2dVertex
 10
7600.259277
 20
3017.232666
 30
0.0
  0
SEQEND
  5
86A
100
AcDbEntity
  8
0
  0
POLYLINE
  5
86B
100
AcDbEntity
  8
0
 62
     7
100
AcDb2dPolyline
 66
     1
 10
0.0
 20
0.0
 30
0.0
 71
     5
  0
VERTEX
  5
86C
100
AcDbEntity
  8
0
100
AcDbVertex
100
AcDb2dVertex
 10
7602.910156
 20
3022.232666
 30
0.0
  0
VERTEX
  5
86D
100
AcDbEntity
  8
0
100
AcDbVertex
100
AcDb2dVertex
 10
7602.708008
 20
3024.145752
 30
0.0
  0
VERTEX
  5
86E
100
AcDbEntity
  8
0
100
AcDbVertex
100
AcDb2dVertex
 10
7602.152832
 20
3025.732178
 30
0.0
  0
VERTEX
  5
86F
100
AcDbEntity
  8
0
100
AcDbVertex
100
AcDb2dVertex
 10
7601.388184
 20
3026.756592
 30
0.0
  0
VERTEX
  5
870
100
AcDbEntity
  8
0
100
AcDbVertex
100
AcDb2dVertex
 10
7600.259277
 20
3027.232666
 30
0.0
  0
SEQEND
  5
871
100
AcDbEntity
  8
0
  0
POLYLINE
  5
872
100
AcDbEntity
  8
0
 62
     7
100
AcDb2dPolyline
 66
     1
 10
0.0
 20
0.0
 30
0.0
 71
     7
  0
VERTEX
  5
873
100
AcDbEntity
  8
0
100
AcDbVertex
100
AcDb2dVertex
 10
7600.259277
 20
3017.232666
 30
0.0
  0
VERTEX
  5
874
100
AcDbEntity
  8
0
100
AcDbVertex
100
AcDb2dVertex
 10
7600.660645
 20
3017.290039
 30
0.0
  0
VERTEX
  5
875
100
AcDbEntity
  8
0
100
AcDbVertex
100
AcDb2dVertex
 10
7601.055176
 20
3017.463379
 30
0.0
  0
VERTEX
  5
876
100
AcDbEntity
  8
0
100
AcDbVertex
100
AcDb2dVertex
 10
7601.44043
 20
3017.756348
 30
0.0
  0
VERTEX
  5
877
100
AcDbEntity
  8
0
100
AcDbVertex
100
AcDb2dVertex
 10
7602.137695
 20
3018.70459
 30
0.0
  0
VERTEX
  5
878
100
AcDbEntity
  8
0
100
AcDbVertex
100
AcDb2dVertex
 10
7602.67041
 20
3020.15625
 30
0.0
  0
VERTEX
  5
879
100
AcDbEntity
  8
0
100
AcDbVertex
100
AcDb2dVertex
 10
7602.910156
 20
3022.232666
 30
0.0
  0
SEQEND
  5
87A
100
AcDbEntity
  8
0
  0
LINE
  5
87B
100
AcDbEntity
  8
0
 62
     7
100
AcDbLine
 10
7379.501465
 20
2506.232422
 30
0.0
 11
7379.501465
 21
3538.232666
 31
0.0
210
0.0
220
0.0
230
1.0
  0
LINE
  5
87C
100
AcDbEntity
  8
0
 62
     7
100
AcDbLine
 10
7415.500977
 20
2506.232422
 30
0.0
 11
7415.500977
 21
3538.232666
 31
0.0
210
0.0
220
0.0
230
1.0
  0
LINE
  5
87D
100
AcDbEntity
  8
0
 62
     7
100
AcDbLine
 10
7379.501465
 20
3538.232666
 30
0.0
 11
7415.500977
 21
3538.232666
 31
0.0
210
0.0
220
0.0
230
1.0
  0
LINE
  5
87E
100
AcDbEntity
  8
0
 62
     7
100
AcDbLine
 10
6159.501465
 20
2506.232422
 30
0.0
 11
6159.501465
 21
3538.232666
 31
0.0
210
0.0
220
0.0
230
1.0
  0
LINE
  5
87F
100
AcDbEntity
  8
0
 62
     7
100
AcDbLine
 10
6195.500977
 20
2506.232422
 30
0.0
 11
6195.500977
 21
3538.232666
 31
0.0
210
0.0
220
0.0
230
1.0
  0
LINE
  5
880
100
AcDbEntity
  8
0
 62
     7
100
AcDbLine
 10
6159.501465
 20
3538.232666
 30
0.0
 11
6195.500977
 21
3538.232666
 31
0.0
210
0.0
220
0.0
230
1.0
  0
LINE
  5
881
100
AcDbEntity
  8
0
 62
     7
100
AcDbLine
 10
6581.924316
 20
3538.232666
 30
0.0
 11
6581.924316
 21
2506.232422
 31
0.0
210
0.0
220
0.0
230
1.0
  0
LINE
  5
882
100
AcDbEntity
  8
0
 62
     7
 48
0.485571
100
AcDbLine
 10
6581.924316
 20
2506.232422
 30
0.0
 11
6562.501465
 21
2506.232422
 31
0.0
210
0.0
220
0.0
230
1.0
  0
LINE
  5
883
100
AcDbEntity
  8
0
 62
     7
100
AcDbLine
 10
6562.501465
 20
3538.232666
 30
0.0
 11
6562.501465
 21
2506.232422
 31
0.0
210
0.0
220
0.0
230
1.0
  0
LINE
  5
884
100
AcDbEntity
  8
0
 62
     7
 48
0.485571
100
AcDbLine
 10
6581.924316
 20
3538.232666
 30
0.0
 11
6562.501465
 21
3538.232666
 31
0.0
210
0.0
220
0.0
230
1.0
  0
LINE
  5
885
100
AcDbEntity
  8
0
 62
     7
100
AcDbLine
 10
6034.704102
 20
3538.232666
 30
0.0
 11
6034.704102
 21
2506.232422
 31
0.0
210
0.0
220
0.0
230
1.0
  0
LINE
  5
886
100
AcDbEntity
  8
0
 62
     7
100
AcDbLine
 10
6034.704102
 20
2506.232422
 30
0.0
 11
6014.501465
 21
2506.232422
 31
0.0
210
0.0
220
0.0
230
1.0
  0
LINE
  5
887
100
AcDbEntity
  8
0
 62
     7
100
AcDbLine
 10
6014.501465
 20
3538.232666
 30
0.0
 11
6014.501465
 21
2506.232422
 31
0.0
210
0.0
220
0.0
230
1.0
  0
LINE
  5
888
100
AcDbEntity
  8
0
 62
     7
100
AcDbLine
 10
6034.704102
 20
3538.232666
 30
0.0
 11
6014.501465
 21
3538.232666
 31
0.0
210
0.0
220
0.0
230
1.0
  0
LINE
  5
889
100
AcDbEntity
  8
0
 62
     7
100
AcDbLine
 10
5567.500977
 20
3538.232666
 30
0.0
 11
5567.500977
 21
2506.232422
 31
0.0
210
0.0
220
0.0
230
1.0
  0
POLYLINE
  5
88A
100
AcDbEntity
  8
0
 62
     7
100
AcDb2dPolyline
 66
     1
 10
0.0
 20
0.0
 30
0.0
 71
    11
  0
VERTEX
  5
88B
100
AcDbEntity
  8
0
100
AcDbVertex
100
AcDb2dVertex
 10
5974.743164
 20
3489.23291
 30
0.0
  0
VERTEX
  5
88C
100
AcDbEntity
  8
0
100
AcDbVertex
100
AcDb2dVertex
 10
5975.144043
 20
3489.290283
 30
0.0
  0
VERTEX
  5
88D
100
AcDbEntity
  8
0
100
AcDbVertex
100
AcDb2dVertex
 10
5975.539063
 20
3489.463623
 30
0.0
  0
VERTEX
  5
88E
100
AcDbEntity
  8
0
100
AcDbVertex
100
AcDb2dVertex
 10
5975.923828
 20
3489.756592
 30
0.0
  0
VERTEX
  5
88F
100
AcDbEntity
  8
0
100
AcDbVertex
100
AcDb2dVertex
 10
5976.621094
 20
3490.70459
 30
0.0
  0
VERTEX
  5
890
100
AcDbEntity
  8
0
100
AcDbVertex
100
AcDb2dVertex
 10
5977.153809
 20
3492.156494
 30
0.0
  0
VERTEX
  5
891
100
AcDbEntity
  8
0
100
AcDbVertex
100
AcDb2dVertex
 10
5977.390625
 20
3493.995117
 30
0.0
  0
VERTEX
  5
892
100
AcDbEntity
  8
0
100
AcDbVertex
100
AcDb2dVertex
 10
5977.237305
 20
3495.923096
 30
0.0
  0
VERTEX
  5
893
100
AcDbEntity
  8
0
100
AcDbVertex
100
AcDb2dVertex
 10
5976.71875
 20
3497.566162
 30
0.0
  0
VERTEX
  5
894
100
AcDbEntity
  8
0
100
AcDbVertex
100
AcDb2dVertex
 10
5975.970215
 20
3498.664307
 30
0.0
  0
VERTEX
  5
895
100
AcDbEntity
  8
0
100
AcDbVertex
100
AcDb2dVertex
 10
5974.743164
 20
3499.23291
 30
0.0
  0
SEQEND
  5
896
100
AcDbEntity
  8
0
  0
POLYLINE
  5
897
100
AcDbEntity
  8
0
 62
     7
100
AcDb2dPolyline
 66
     1
 10
0.0
 20
0.0
 30
0.0
 71
     5
  0
VERTEX
  5
898
100
AcDbEntity
  8
0
100
AcDbVertex
100
AcDb2dVertex
 10
5972.092285
 20
3494.23291
 30
0.0
  0
VERTEX
  5
899
100
AcDbEntity
  8
0
100
AcDbVertex
100
AcDb2dVertex
 10
5972.294434
 20
3492.31958
 30
0.0
  0
VERTEX
  5
89A
100
AcDbEntity
  8
0
100
AcDbVertex
100
AcDb2dVertex
 10
5972.849609
 20
3490.733643
 30
0.0
  0
VERTEX
  5
89B
100
AcDbEntity
  8
0
100
AcDbVertex
100
AcDb2dVertex
 10
5973.614258
 20
3489.708984
 30
0.0
  0
VERTEX
  5
89C
100
AcDbEntity
  8
0
100
AcDbVertex
100
AcDb2dVertex
 10
5974.743164
 20
3489.23291
 30
0.0
  0
SEQEND
  5
89D
100
AcDbEntity
  8
0
  0
POLYLINE
  5
89E
100
AcDbEntity
  8
0
 62
     7
100
AcDb2dPolyline
 66
     1
 10
0.0
 20
0.0
 30
0.0
 71
     7
  0
VERTEX
  5
89F
100
AcDbEntity
  8
0
100
AcDbVertex
100
AcDb2dVertex
 10
5974.743164
 20
3499.23291
 30
0.0
  0
VERTEX
  5
8A0
100
AcDbEntity
  8
0
100
AcDbVertex
100
AcDb2dVertex
 10
5974.341797
 20
3499.175537
 30
0.0
  0
VERTEX
  5
8A1
100
AcDbEntity
  8
0
100
AcDbVertex
100
AcDb2dVertex
 10
5973.947266
 20
3499.002197
 30
0.0
  0
VERTEX
  5
8A2
100
AcDbEntity
  8
0
100
AcDbVertex
100
AcDb2dVertex
 10
5973.562012
 20
3498.709229
 30
0.0
  0
VERTEX
  5
8A3
100
AcDbEntity
  8
0
100
AcDbVertex
100
AcDb2dVertex
 10
5972.864746
 20
3497.760986
 30
0.0
  0
VERTEX
  5
8A4
100
AcDbEntity
  8
0
100
AcDbVertex
100
AcDb2dVertex
 10
5972.332031
 20
3496.30957
 30
0.0
  0
VERTEX
  5
8A5
100
AcDbEntity
  8
0
100
AcDbVertex
100
AcDb2dVertex
 10
5972.092285
 20
3494.23291
 30
0.0
  0
SEQEND
  5
8A6
100
AcDbEntity
  8
0
  0
POLYLINE
  5
8A7
100
AcDbEntity
  8
0
 62
     7
100
AcDb2dPolyline
 66
     1
 10
0.0
 20
0.0
 30
0.0
 71
    11
  0
VERTEX
  5
8A8
100
AcDbEntity
  8
0
100
AcDbVertex
100
AcDb2dVertex
 10
5974.743164
 20
2781.232666
 30
0.0
  0
VERTEX
  5
8A9
100
AcDbEntity
  8
0
100
AcDbVertex
100
AcDb2dVertex
 10
5975.144043
 20
2781.290039
 30
0.0
  0
VERTEX
  5
8AA
100
AcDbEntity
  8
0
100
AcDbVertex
100
AcDb2dVertex
 10
5975.539063
 20
2781.463379
 30
0.0
  0
VERTEX
  5
8AB
100
AcDbEntity
  8
0
100
AcDbVertex
100
AcDb2dVertex
 10
5975.923828
 20
2781.756348
 30
0.0
  0
VERTEX
  5
8AC
100
AcDbEntity
  8
0
100
AcDbVertex
100
AcDb2dVertex
 10
5976.621094
 20
2782.704346
 30
0.0
  0
VERTEX
  5
8AD
100
AcDbEntity
  8
0
100
AcDbVertex
100
AcDb2dVertex
 10
5977.153809
 20
2784.155762
 30
0.0
  0
VERTEX
  5
8AE
100
AcDbEntity
  8
0
100
AcDbVertex
100
AcDb2dVertex
 10
5977.390625
 20
2785.994873
 30
0.0
  0
VERTEX
  5
8AF
100
AcDbEntity
  8
0
100
AcDbVertex
100
AcDb2dVertex
 10
5977.237305
 20
2787.922852
 30
0.0
  0
VERTEX
  5
8B0
100
AcDbEntity
  8
0
100
AcDbVertex
100
AcDb2dVertex
 10
5976.71875
 20
2789.565918
 30
0.0
  0
VERTEX
  5
8B1
100
AcDbEntity
  8
0
100
AcDbVertex
100
AcDb2dVertex
 10
5975.970215
 20
2790.664063
 30
0.0
  0
VERTEX
  5
8B2
100
AcDbEntity
  8
0
100
AcDbVertex
100
AcDb2dVertex
 10
5974.743164
 20
2791.232666
 30
0.0
  0
SEQEND
  5
8B3
100
AcDbEntity
  8
0
  0
POLYLINE
  5
8B4
100
AcDbEntity
  8
0
 62
     7
100
AcDb2dPolyline
 66
     1
 10
0.0
 20
0.0
 30
0.0
 71
     5
  0
VERTEX
  5
8B5
100
AcDbEntity
  8
0
100
AcDbVertex
100
AcDb2dVertex
 10
5972.092285
 20
2786.232666
 30
0.0
  0
VERTEX
  5
8B6
100
AcDbEntity
  8
0
100
AcDbVertex
100
AcDb2dVertex
 10
5972.294434
 20
2784.319336
 30
0.0
  0
VERTEX
  5
8B7
100
AcDbEntity
  8
0
100
AcDbVertex
100
AcDb2dVertex
 10
5972.849609
 20
2782.733398
 30
0.0
  0
VERTEX
  5
8B8
100
AcDbEntity
  8
0
100
AcDbVertex
100
AcDb2dVertex
 10
5973.614258
 20
2781.70874
 30
0.0
  0
VERTEX
  5
8B9
100
AcDbEntity
  8
0
100
AcDbVertex
100
AcDb2dVertex
 10
5974.743164
 20
2781.232666
 30
0.0
  0
SEQEND
  5
8BA
100
AcDbEntity
  8
0
  0
POLYLINE
  5
8BB
100
AcDbEntity
  8
0
 62
     7
100
AcDb2dPolyline
 66
     1
 10
0.0
 20
0.0
 30
0.0
 71
     7
  0
VERTEX
  5
8BC
100
AcDbEntity
  8
0
100
AcDbVertex
100
AcDb2dVertex
 10
5974.743164
 20
2791.232666
 30
0.0
  0
VERTEX
  5
8BD
100
AcDbEntity
  8
0
100
AcDbVertex
100
AcDb2dVertex
 10
5974.341797
 20
2791.175293
 30
0.0
  0
VERTEX
  5
8BE
100
AcDbEntity
  8
0
100
AcDbVertex
100
AcDb2dVertex
 10
5973.947266
 20
2791.001953
 30
0.0
  0
VERTEX
  5
8BF
100
AcDbEntity
  8
0
100
AcDbVertex
100
AcDb2dVertex
 10
5973.562012
 20
2790.708984
 30
0.0
  0
VERTEX
  5
8C0
100
AcDbEntity
  8
0
100
AcDbVertex
100
AcDb2dVertex
 10
5972.864746
 20
2789.760742
 30
0.0
  0
VERTEX
  5
8C1
100
AcDbEntity
  8
0
100
AcDbVertex
100
AcDb2dVertex
 10
5972.332031
 20
2788.309082
 30
0.0
  0
VERTEX
  5
8C2
100
AcDbEntity
  8
0
100
AcDbVertex
100
AcDb2dVertex
 10
5972.092285
 20
2786.232666
 30
0.0
  0
SEQEND
  5
8C3
100
AcDbEntity
  8
0
  0
POLYLINE
  5
8C4
100
AcDbEntity
  8
0
 62
     7
100
AcDb2dPolyline
 66
     1
 10
0.0
 20
0.0
 30
0.0
 71
    11
  0
VERTEX
  5
8C5
100
AcDbEntity
  8
0
100
AcDbVertex
100
AcDb2dVertex
 10
5974.743164
 20
2545.232666
 30
0.0
  0
VERTEX
  5
8C6
100
AcDbEntity
  8
0
100
AcDbVertex
100
AcDb2dVertex
 10
5975.144043
 20
2545.290039
 30
0.0
  0
VERTEX
  5
8C7
100
AcDbEntity
  8
0
100
AcDbVertex
100
AcDb2dVertex
 10
5975.539063
 20
2545.463379
 30
0.0
  0
VERTEX
  5
8C8
100
AcDbEntity
  8
0
100
AcDbVertex
100
AcDb2dVertex
 10
5975.923828
 20
2545.756348
 30
0.0
  0
VERTEX
  5
8C9
100
AcDbEntity
  8
0
100
AcDbVertex
100
AcDb2dVertex
 10
5976.621094
 20
2546.70459
 30
0.0
  0
VERTEX
  5
8CA
100
AcDbEntity
  8
0
100
AcDbVertex
100
AcDb2dVertex
 10
5977.153809
 20
2548.156006
 30
0.0
  0
VERTEX
  5
8CB
100
AcDbEntity
  8
0
100
AcDbVertex
100
AcDb2dVertex
 10
5977.390625
 20
2549.994873
 30
0.0
  0
VERTEX
  5
8CC
100
AcDbEntity
  8
0
100
AcDbVertex
100
AcDb2dVertex
 10
5977.237305
 20
2551.923096
 30
0.0
  0
VERTEX
  5
8CD
100
AcDbEntity
  8
0
100
AcDbVertex
100
AcDb2dVertex
 10
5976.71875
 20
2553.566162
 30
0.0
  0
VERTEX
  5
8CE
100
AcDbEntity
  8
0
100
AcDbVertex
100
AcDb2dVertex
 10
5975.970215
 20
2554.664063
 30
0.0
  0
VERTEX
  5
8CF
100
AcDbEntity
  8
0
100
AcDbVertex
100
AcDb2dVertex
 10
5974.743164
 20
2555.232666
 30
0.0
  0
SEQEND
  5
8D0
100
AcDbEntity
  8
0
  0
POLYLINE
  5
8D1
100
AcDbEntity
  8
0
 62
     7
100
AcDb2dPolyline
 66
     1
 10
0.0
 20
0.0
 30
0.0
 71
     5
  0
VERTEX
  5
8D2
100
AcDbEntity
  8
0
100
AcDbVertex
100
AcDb2dVertex
 10
5972.092285
 20
2550.232666
 30
0.0
  0
VERTEX
  5
8D3
100
AcDbEntity
  8
0
100
AcDbVertex
100
AcDb2dVertex
 10
5972.294434
 20
2548.31958
 30
0.0
  0
VERTEX
  5
8D4
100
AcDbEntity
  8
0
100
AcDbVertex
100
AcDb2dVertex
 10
5972.849609
 20
2546.733398
 30
0.0
  0
VERTEX
  5
8D5
100
AcDbEntity
  8
0
100
AcDbVertex
100
AcDb2dVertex
 10
5973.614258
 20
2545.70874
 30
0.0
  0
VERTEX
  5
8D6
100
AcDbEntity
  8
0
100
AcDbVertex
100
AcDb2dVertex
 10
5974.743164
 20
2545.232666
 30
0.0
  0
SEQEND
  5
8D7
100
AcDbEntity
  8
0
  0
POLYLINE
  5
8D8
100
AcDbEntity
  8
0
 62
     7
100
AcDb2dPolyline
 66
     1
 10
0.0
 20
0.0
 30
0.0
 71
     7
  0
VERTEX
  5
8D9
100
AcDbEntity
  8
0
100
AcDbVertex
100
AcDb2dVertex
 10
5974.743164
 20
2555.232666
 30
0.0
  0
VERTEX
  5
8DA
100
AcDbEntity
  8
0
100
AcDbVertex
100
AcDb2dVertex
 10
5974.341797
 20
2555.175049
 30
0.0
  0
VERTEX
  5
8DB
100
AcDbEntity
  8
0
100
AcDbVertex
100
AcDb2dVertex
 10
5973.947266
 20
2555.001953
 30
0.0
  0
VERTEX
  5
8DC
100
AcDbEntity
  8
0
100
AcDbVertex
100
AcDb2dVertex
 10
5973.562012
 20
2554.70874
 30
0.0
  0
VERTEX
  5
8DD
100
AcDbEntity
  8
0
100
AcDbVertex
100
AcDb2dVertex
 10
5972.864746
 20
2553.760498
 30
0.0
  0
VERTEX
  5
8DE
100
AcDbEntity
  8
0
100
AcDbVertex
100
AcDb2dVertex
 10
5972.332031
 20
2552.309082
 30
0.0
  0
VERTEX
  5
8DF
100
AcDbEntity
  8
0
100
AcDbVertex
100
AcDb2dVertex
 10
5972.092285
 20
2550.232666
 30
0.0
  0
SEQEND
  5
8E0
100
AcDbEntity
  8
0
  0
POLYLINE
  5
8E1
100
AcDbEntity
  8
0
 62
     7
100
AcDb2dPolyline
 66
     1
 10
0.0
 20
0.0
 30
0.0
 71
    11
  0
VERTEX
  5
8E2
100
AcDbEntity
  8
0
100
AcDbVertex
100
AcDb2dVertex
 10
5974.743164
 20
3263.232666
 30
0.0
  0
VERTEX
  5
8E3
100
AcDbEntity
  8
0
100
AcDbVertex
100
AcDb2dVertex
 10
5974.341797
 20
3263.175293
 30
0.0
  0
VERTEX
  5
8E4
100
AcDbEntity
  8
0
100
AcDbVertex
100
AcDb2dVertex
 10
5973.947266
 20
3263.001953
 30
0.0
  0
VERTEX
  5
8E5
100
AcDbEntity
  8
0
100
AcDbVertex
100
AcDb2dVertex
 10
5973.562012
 20
3262.708984
 30
0.0
  0
VERTEX
  5
8E6
100
AcDbEntity
  8
0
100
AcDbVertex
100
AcDb2dVertex
 10
5972.864746
 20
3261.760498
 30
0.0
  0
VERTEX
  5
8E7
100
AcDbEntity
  8
0
100
AcDbVertex
100
AcDb2dVertex
 10
5972.332031
 20
3260.309082
 30
0.0
  0
VERTEX
  5
8E8
100
AcDbEntity
  8
0
100
AcDbVertex
100
AcDb2dVertex
 10
5972.095215
 20
3258.470459
 30
0.0
  0
VERTEX
  5
8E9
100
AcDbEntity
  8
0
100
AcDbVertex
100
AcDb2dVertex
 10
5972.248535
 20
3256.54248
 30
0.0
  0
VERTEX
  5
8EA
100
AcDbEntity
  8
0
100
AcDbVertex
100
AcDb2dVertex
 10
5972.76709
 20
3254.899414
 30
0.0
  0
VERTEX
  5
8EB
100
AcDbEntity
  8
0
100
AcDbVertex
100
AcDb2dVertex
 10
5973.515625
 20
3253.80127
 30
0.0
  0
VERTEX
  5
8EC
100
AcDbEntity
  8
0
100
AcDbVertex
100
AcDb2dVertex
 10
5974.743164
 20
3253.232666
 30
0.0
  0
SEQEND
  5
8ED
100
AcDbEntity
  8
0
  0
POLYLINE
  5
8EE
100
AcDbEntity
  8
0
 62
     7
100
AcDb2dPolyline
 66
     1
 10
0.0
 20
0.0
 30
0.0
 71
     5
  0
VERTEX
  5
8EF
100
AcDbEntity
  8
0
100
AcDbVertex
100
AcDb2dVertex
 10
5977.393555
 20
3258.232666
 30
0.0
  0
VERTEX
  5
8F0
100
AcDbEntity
  8
0
100
AcDbVertex
100
AcDb2dVertex
 10
5977.191895
 20
3260.145996
 30
0.0
  0
VERTEX
  5
8F1
100
AcDbEntity
  8
0
100
AcDbVertex
100
AcDb2dVertex
 10
5976.63623
 20
3261.731934
 30
0.0
  0
VERTEX
  5
8F2
100
AcDbEntity
  8
0
100
AcDbVertex
100
AcDb2dVertex
 10
5975.871582
 20
3262.756592
 30
0.0
  0
VERTEX
  5
8F3
100
AcDbEntity
  8
0
100
AcDbVertex
100
AcDb2dVertex
 10
5974.743164
 20
3263.232666
 30
0.0
  0
SEQEND
  5
8F4
100
AcDbEntity
  8
0
  0
POLYLINE
  5
8F5
100
AcDbEntity
  8
0
 62
     7
100
AcDb2dPolyline
 66
     1
 10
0.0
 20
0.0
 30
0.0
 71
     7
  0
VERTEX
  5
8F6
100
AcDbEntity
  8
0
100
AcDbVertex
100
AcDb2dVertex
 10
5974.743164
 20
3253.232666
 30
0.0
  0
VERTEX
  5
8F7
100
AcDbEntity
  8
0
100
AcDbVertex
100
AcDb2dVertex
 10
5975.144043
 20
3253.290039
 30
0.0
  0
VERTEX
  5
8F8
100
AcDbEntity
  8
0
100
AcDbVertex
100
AcDb2dVertex
 10
5975.539063
 20
3253.463379
 30
0.0
  0
VERTEX
  5
8F9
100
AcDbEntity
  8
0
100
AcDbVertex
100
AcDb2dVertex
 10
5975.923828
 20
3253.756348
 30
0.0
  0
VERTEX
  5
8FA
100
AcDbEntity
  8
0
100
AcDbVertex
100
AcDb2dVertex
 10
5976.621094
 20
3254.70459
 30
0.0
  0
VERTEX
  5
8FB
100
AcDbEntity
  8
0
100
AcDbVertex
100
AcDb2dVertex
 10
5977.153809
 20
3256.156006
 30
0.0
  0
VERTEX
  5
8FC
100
AcDbEntity
  8
0
100
AcDbVertex
100
AcDb2dVertex
 10
5977.393555
 20
3258.232666
 30
0.0
  0
SEQEND
  5
8FD
100
AcDbEntity
  8
0
  0
POLYLINE
  5
8FE
100
AcDbEntity
  8
0
 62
     7
100
AcDb2dPolyline
 66
     1
 10
0.0
 20
0.0
 30
0.0
 71
    11
  0
VERTEX
  5
8FF
100
AcDbEntity
  8
0
100
AcDbVertex
100
AcDb2dVertex
 10
5974.743164
 20
3017.232666
 30
0.0
  0
VERTEX
  5
900
100
AcDbEntity
  8
0
100
AcDbVertex
100
AcDb2dVertex
 10
5975.144043
 20
3017.290039
 30
0.0
  0
VERTEX
  5
901
100
AcDbEntity
  8
0
100
AcDbVertex
100
AcDb2dVertex
 10
5975.539063
 20
3017.463379
 30
0.0
  0
VERTEX
  5
902
100
AcDbEntity
  8
0
100
AcDbVertex
100
AcDb2dVertex
 10
5975.923828
 20
3017.756348
 30
0.0
  0
VERTEX
  5
903
100
AcDbEntity
  8
0
100
AcDbVertex
100
AcDb2dVertex
 10
5976.621094
 20
3018.70459
 30
0.0
  0
VERTEX
  5
904
100
AcDbEntity
  8
0
100
AcDbVertex
100
AcDb2dVertex
 10
5977.153809
 20
3020.15625
 30
0.0
  0
VERTEX
  5
905
100
AcDbEntity
  8
0
100
AcDbVertex
100
AcDb2dVertex
 10
5977.390625
 20
3021.994873
 30
0.0
  0
VERTEX
  5
906
100
AcDbEntity
  8
0
100
AcDbVertex
100
AcDb2dVertex
 10
5977.237305
 20
3023.923096
 30
0.0
  0
VERTEX
  5
907
100
AcDbEntity
  8
0
100
AcDbVertex
100
AcDb2dVertex
 10
5976.71875
 20
3025.566162
 30
0.0
  0
VERTEX
  5
908
100
AcDbEntity
  8
0
100
AcDbVertex
100
AcDb2dVertex
 10
5975.970215
 20
3026.664063
 30
0.0
  0
VERTEX
  5
909
100
AcDbEntity
  8
0
100
AcDbVertex
100
AcDb2dVertex
 10
5974.743164
 20
3027.232666
 30
0.0
  0
SEQEND
  5
90A
100
AcDbEntity
  8
0
  0
POLYLINE
  5
90B
100
AcDbEntity
  8
0
 62
     7
100
AcDb2dPolyline
 66
     1
 10
0.0
 20
0.0
 30
0.0
 71
     5
  0
VERTEX
  5
90C
100
AcDbEntity
  8
0
100
AcDbVertex
100
AcDb2dVertex
 10
5972.092285
 20
3022.232666
 30
0.0
  0
VERTEX
  5
90D
100
AcDbEntity
  8
0
100
AcDbVertex
100
AcDb2dVertex
 10
5972.294434
 20
3020.31958
 30
0.0
  0
VERTEX
  5
90E
100
AcDbEntity
  8
0
100
AcDbVertex
100
AcDb2dVertex
 10
5972.849609
 20
3018.733398
 30
0.0
  0
VERTEX
  5
90F
100
AcDbEntity
  8
0
100
AcDbVertex
100
AcDb2dVertex
 10
5973.614258
 20
3017.70874
 30
0.0
  0
VERTEX
  5
910
100
AcDbEntity
  8
0
100
AcDbVertex
100
AcDb2dVertex
 10
5974.743164
 20
3017.232666
 30
0.0
  0
SEQEND
  5
911
100
AcDbEntity
  8
0
  0
POLYLINE
  5
912
100
AcDbEntity
  8
0
 62
     7
100
AcDb2dPolyline
 66
     1
 10
0.0
 20
0.0
 30
0.0
 71
     7
  0
VERTEX
  5
913
100
AcDbEntity
  8
0
100
AcDbVertex
100
AcDb2dVertex
 10
5974.743164
 20
3027.232666
 30
0.0
  0
VERTEX
  5
914
100
AcDbEntity
  8
0
100
AcDbVertex
100
AcDb2dVertex
 10
5974.341797
 20
3027.175293
 30
0.0
  0
VERTEX
  5
915
100
AcDbEntity
  8
0
100
AcDbVertex
100
AcDb2dVertex
 10
5973.947266
 20
3027.001953
 30
0.0
  0
VERTEX
  5
916
100
AcDbEntity
  8
0
100
AcDbVertex
100
AcDb2dVertex
 10
5973.562012
 20
3026.708984
 30
0.0
  0
VERTEX
  5
917
100
AcDbEntity
  8
0
100
AcDbVertex
100
AcDb2dVertex
 10
5972.864746
 20
3025.760742
 30
0.0
  0
VERTEX
  5
918
100
AcDbEntity
  8
0
100
AcDbVertex
100
AcDb2dVertex
 10
5972.332031
 20
3024.309326
 30
0.0
  0
VERTEX
  5
919
100
AcDbEntity
  8
0
100
AcDbVertex
100
AcDb2dVertex
 10
5972.092285
 20
3022.232666
 30
0.0
  0
SEQEND
  5
91A
100
AcDbEntity
  8
0
  0
LINE
  5
91B
100
AcDbEntity
  8
0
 62
     7
100
AcDbLine
 10
6034.704102
 20
2506.232422
 30
0.0
 11
6034.704102
 21
3538.232666
 31
0.0
210
0.0
220
0.0
230
1.0
  0
LINE
  5
91C
100
AcDbEntity
  8
0
 62
     7
100
AcDbLine
 10
6014.501465
 20
3538.232666
 30
0.0
 11
7560.500977
 21
3538.232666
 31
0.0
210
0.0
220
0.0
230
1.0
  0
LINE
  5
91D
100
AcDbEntity
  8
0
 62
     7
100
AcDbLine
 10
7997.513184
 20
3556.232666
 30
0.0
 11
7549.887207
 21
3556.232666
 31
0.0
210
0.0
220
0.0
230
1.0
  0
LINE
  5
91E
100
AcDbEntity
  8
0
 62
     7
100
AcDbLine
 10
5577.489746
 20
3556.232666
 30
0.0
 11
6025.115234
 21
3556.232666
 31
0.0
210
0.0
220
0.0
230
1.0
  0
LINE
  5
91F
100
AcDbEntity
  8
0
 62
     7
100
AcDbLine
 10
6025.115234
 20
3556.232666
 30
0.0
 11
7549.887207
 21
3556.232666
 31
0.0
210
0.0
220
0.0
230
1.0
  0
POLYLINE
  5
920
100
AcDbEntity
  8
0
 62
     7
100
AcDb2dPolyline
 66
     1
 10
0.0
 20
0.0
 30
0.0
 71
     7
  0
VERTEX
  5
921
100
AcDbEntity
  8
0
100
AcDbVertex
100
AcDb2dVertex
 10
7560.500977
 20
3547.232666
 30
0.0
  0
VERTEX
  5
922
100
AcDbEntity
  8
0
100
AcDbVertex
100
AcDb2dVertex
 10
7560.296875
 20
3548.991455
 30
0.0
  0
VERTEX
  5
923
100
AcDbEntity
  8
0
100
AcDbVertex
100
AcDb2dVertex
 10
7559.6875
 20
3550.688232
 30
0.0
  0
VERTEX
  5
924
100
AcDbEntity
  8
0
100
AcDbVertex
100
AcDb2dVertex
 10
7558.687012
 20
3552.264648
 30
0.0
  0
VERTEX
  5
925
100
AcDbEntity
  8
0
100
AcDbVertex
100
AcDb2dVertex
 10
7557.317383
 20
3553.659424
 30
0.0
  0
VERTEX
  5
926
100
AcDbEntity
  8
0
100
AcDbVertex
100
AcDb2dVertex
 10
7553.676758
 20
3555.639404
 30
0.0
  0
VERTEX
  5
927
100
AcDbEntity
  8
0
100
AcDbVertex
100
AcDb2dVertex
 10
7549.887207
 20
3556.232666
 30
0.0
  0
SEQEND
  5
928
100
AcDbEntity
  8
0
  0
LINE
  5
929
100
AcDbEntity
  8
0
 62
     7
 48
0.225
100
AcDbLine
 10
7560.500977
 20
3547.232666
 30
0.0
 11
7560.500977
 21
3538.232666
 31
0.0
210
0.0
220
0.0
230
1.0
  0
LINE
  5
92A
100
AcDbEntity
  8
0
 62
     7
 48
0.225
100
AcDbLine
 10
6014.501465
 20
3547.232666
 30
0.0
 11
6014.501465
 21
3538.232666
 31
0.0
210
0.0
220
0.0
230
1.0
  0
POLYLINE
  5
92B
100
AcDbEntity
  8
0
 62
     7
100
AcDb2dPolyline
 66
     1
 10
0.0
 20
0.0
 30
0.0
 71
     8
  0
VERTEX
  5
92C
100
AcDbEntity
  8
0
100
AcDbVertex
100
AcDb2dVertex
 10
6025.115234
 20
3556.232666
 30
0.0
  0
VERTEX
  5
92D
100
AcDbEntity
  8
0
100
AcDbVertex
100
AcDb2dVertex
 10
6022.876465
 20
3556.030273
 30
0.0
  0
VERTEX
  5
92E
100
AcDbEntity
  8
0
100
AcDbVertex
100
AcDb2dVertex
 10
6020.738281
 20
3555.431885
 30
0.0
  0
VERTEX
  5
92F
100
AcDbEntity
  8
0
100
AcDbVertex
100
AcDb2dVertex
 10
6018.818848
 20
3554.477783
 30
0.0
  0
VERTEX
  5
930
100
AcDbEntity
  8
0
100
AcDbVertex
100
AcDb2dVertex
 10
6017.194824
 20
3553.223633
 30
0.0
  0
VERTEX
  5
931
100
AcDbEntity
  8
0
100
AcDbVertex
100
AcDb2dVertex
 10
6015.927246
 20
3551.738037
 30
0.0
  0
VERTEX
  5
932
100
AcDbEntity
  8
0
100
AcDbVertex
100
AcDb2dVertex
 10
6015.05127
 20
3550.091797
 30
0.0
  0
VERTEX
  5
933
100
AcDbEntity
  8
0
100
AcDbVertex
100
AcDb2dVertex
 10
6014.501465
 20
3547.232666
 30
0.0
  0
SEQEND
  5
934
100
AcDbEntity
  8
0
  0
LINE
  5
935
100
AcDbEntity
  8
0
 62
     7
 48
0.225
100
AcDbLine
 10
8007.501465
 20
3547.232666
 30
0.0
 11
8007.501465
 21
3538.232666
 31
0.0
210
0.0
220
0.0
230
1.0
  0
LINE
  5
936
100
AcDbEntity
  8
0
 62
     7
 48
0.177405
100
AcDbLine
 10
8007.501465
 20
3547.232666
 30
0.0
 11
8007.501465
 21
3554.328857
 31
0.0
210
0.0
220
0.0
230
1.0
  0
LINE
  5
937
100
AcDbEntity
  8
0
 62
     7
 48
0.225
100
AcDbLine
 10
5567.500977
 20
3547.232666
 30
0.0
 11
5567.500977
 21
3538.232666
 31
0.0
210
0.0
220
0.0
230
1.0
  0
LINE
  5
938
100
AcDbEntity
  8
0
 62
     7
 48
0.177405
100
AcDbLine
 10
5567.500977
 20
3554.328857
 30
0.0
 11
5567.500977
 21
3547.232666
 31
0.0
210
0.0
220
0.0
230
1.0
  0
POLYLINE
  5
939
100
AcDbEntity
  8
0
 62
     7
100
AcDb2dPolyline
 66
     1
 10
0.0
 20
0.0
 30
0.0
 71
    13
  0
VERTEX
  5
93A
100
AcDbEntity
  8
0
100
AcDbVertex
100
AcDb2dVertex
 10
5577.489746
 20
3556.232666
 30
0.0
  0
VERTEX
  5
93B
100
AcDbEntity
  8
0
100
AcDbVertex
100
AcDb2dVertex
 10
5576.811035
 20
3556.225098
 30
0.0
  0
VERTEX
  5
93C
100
AcDbEntity
  8
0
100
AcDbVertex
100
AcDb2dVertex
 10
5575.994141
 20
3556.19458
 30
0.0
  0
VERTEX
  5
93D
100
AcDbEntity
  8
0
100
AcDbVertex
100
AcDb2dVertex
 10
5574.948242
 20
3556.121826
 30
0.0
  0
VERTEX
  5
93E
100
AcDbEntity
  8
0
100
AcDbVertex
100
AcDb2dVertex
 10
5574.45752
 20
3556.074463
 30
0.0
  0
VERTEX
  5
93F
100
AcDbEntity
  8
0
100
AcDbVertex
100
AcDb2dVertex
 10
5573.046875
 20
3555.889404
 30
0.0
  0
VERTEX
  5
940
100
AcDbEntity
  8
0
100
AcDbVertex
100
AcDb2dVertex
 10
5572.321289
 20
3555.764893
 30
0.0
  0
VERTEX
  5
941
100
AcDbEntity
  8
0
100
AcDbVertex
100
AcDb2dVertex
 10
5571.599121
 20
3555.619873
 30
0.0
  0
VERTEX
  5
942
100
AcDbEntity
  8
0
100
AcDbVertex
100
AcDb2dVertex
 10
5570.927246
 20
3555.465088
 30
0.0
  0
VERTEX
  5
943
100
AcDbEntity
  8
0
100
AcDbVertex
100
AcDb2dVertex
 10
5570.258301
 20
3555.291504
 30
0.0
  0
VERTEX
  5
944
100
AcDbEntity
  8
0
100
AcDbVertex
100
AcDb2dVertex
 10
5569.32666
 20
3555.013184
 30
0.0
  0
VERTEX
  5
945
100
AcDbEntity
  8
0
100
AcDbVertex
100
AcDb2dVertex
 10
5568.40625
 20
3554.693359
 30
0.0
  0
VERTEX
  5
946
100
AcDbEntity
  8
0
100
AcDbVertex
100
AcDb2dVertex
 10
5567.500977
 20
3554.328857
 30
0.0
  0
SEQEND
  5
947
100
AcDbEntity
  8
0
  0
POLYLINE
  5
948
100
AcDbEntity
  8
0
 62
     7
100
AcDb2dPolyline
 66
     1
 10
0.0
 20
0.0
 30
0.0
 71
    13
  0
VERTEX
  5
949
100
AcDbEntity
  8
0
100
AcDbVertex
100
AcDb2dVertex
 10
7997.513184
 20
3556.232666
 30
0.0
  0
VERTEX
  5
94A
100
AcDbEntity
  8
0
100
AcDbVertex
100
AcDb2dVertex
 10
7998.191895
 20
3556.225098
 30
0.0
  0
VERTEX
  5
94B
100
AcDbEntity
  8
0
100
AcDbVertex
100
AcDb2dVertex
 10
7999.008789
 20
3556.19458
 30
0.0
  0
VERTEX
  5
94C
100
AcDbEntity
  8
0
100
AcDbVertex
100
AcDb2dVertex
 10
8000.053711
 20
3556.121826
 30
0.0
  0
VERTEX
  5
94D
100
AcDbEntity
  8
0
100
AcDbVertex
100
AcDb2dVertex
 10
8000.543945
 20
3556.074463
 30
0.0
  0
VERTEX
  5
94E
100
AcDbEntity
  8
0
100
AcDbVertex
100
AcDb2dVertex
 10
8001.955078
 20
3555.889648
 30
0.0
  0
VERTEX
  5
94F
100
AcDbEntity
  8
0
100
AcDbVertex
100
AcDb2dVertex
 10
8002.680176
 20
3555.765137
 30
0.0
  0
VERTEX
  5
950
100
AcDbEntity
  8
0
100
AcDbVertex
100
AcDb2dVertex
 10
8003.402344
 20
3555.620117
 30
0.0
  0
VERTEX
  5
951
100
AcDbEntity
  8
0
100
AcDbVertex
100
AcDb2dVertex
 10
8004.074707
 20
3555.465332
 30
0.0
  0
VERTEX
  5
952
100
AcDbEntity
  8
0
100
AcDbVertex
100
AcDb2dVertex
 10
8004.743164
 20
3555.291504
 30
0.0
  0
VERTEX
  5
953
100
AcDbEntity
  8
0
100
AcDbVertex
100
AcDb2dVertex
 10
8005.675293
 20
3555.013428
 30
0.0
  0
VERTEX
  5
954
100
AcDbEntity
  8
0
100
AcDbVertex
100
AcDb2dVertex
 10
8006.595703
 20
3554.693604
 30
0.0
  0
VERTEX
  5
955
100
AcDbEntity
  8
0
100
AcDbVertex
100
AcDb2dVertex
 10
8007.501465
 20
3554.328857
 30
0.0
  0
SEQEND
  5
956
100
AcDbEntity
  8
0
  0
LINE
  5
957
100
AcDbEntity
  8
0
 62
     7
100
AcDbLine
 10
7289.501465
 20
2488.232422
 30
0.0
 11
7162.501465
 21
2488.232422
 31
0.0
210
0.0
220
0.0
230
1.0
  0
LINE
  5
958
100
AcDbEntity
  8
0
 62
     7
 48
0.175
100
AcDbLine
 10
7289.501465
 20
2488.232422
 30
0.0
 11
7289.501465
 21
2481.232422
 31
0.0
210
0.0
220
0.0
230
1.0
  0
LINE
  5
959
100
AcDbEntity
  8
0
 62
     7
 48
0.175
100
AcDbLine
 10
7162.501465
 20
2488.232422
 30
0.0
 11
7162.501465
 21
2481.232422
 31
0.0
210
0.0
220
0.0
230
1.0
  0
LINE
  5
95A
100
AcDbEntity
  8
0
 62
     7
100
AcDbLine
 10
7289.501465
 20
2481.232422
 30
0.0
 11
7162.501465
 21
2481.232422
 31
0.0
210
0.0
220
0.0
230
1.0
  0
LINE
  5
95B
100
AcDbEntity
  8
0
 62
     7
 48
0.176777
100
AcDbLine
 10
7284.501465
 20
2476.232422
 30
0.0
 11
7289.501465
 21
2481.232422
 31
0.0
210
0.0
220
0.0
230
1.0
  0
LINE
  5
95C
100
AcDbEntity
  8
0
 62
     7
 48
0.176777
100
AcDbLine
 10
7167.501465
 20
2476.232422
 30
0.0
 11
7162.501465
 21
2481.232422
 31
0.0
210
0.0
220
0.0
230
1.0
  0
LINE
  5
95D
100
AcDbEntity
  8
0
 62
     7
100
AcDbLine
 10
7284.501465
 20
2476.232422
 30
0.0
 11
7167.501465
 21
2476.232422
 31
0.0
210
0.0
220
0.0
230
1.0
  0
LINE
  5
95E
100
AcDbEntity
  8
0
 62
     7
100
AcDbLine
 10
6412.501465
 20
2488.232422
 30
0.0
 11
6285.500977
 21
2488.232422
 31
0.0
210
0.0
220
0.0
230
1.0
  0
LINE
  5
95F
100
AcDbEntity
  8
0
 62
     7
 48
0.175
100
AcDbLine
 10
6412.501465
 20
2488.232422
 30
0.0
 11
6412.501465
 21
2481.232422
 31
0.0
210
0.0
220
0.0
230
1.0
  0
LINE
  5
960
100
AcDbEntity
  8
0
 62
     7
 48
0.175
100
AcDbLine
 10
6285.500977
 20
2488.232422
 30
0.0
 11
6285.500977
 21
2481.232422
 31
0.0
210
0.0
220
0.0
230
1.0
  0
LINE
  5
961
100
AcDbEntity
  8
0
 62
     7
100
AcDbLine
 10
6412.501465
 20
2481.232422
 30
0.0
 11
6285.500977
 21
2481.232422
 31
0.0
210
0.0
220
0.0
230
1.0
  0
LINE
  5
962
100
AcDbEntity
  8
0
 62
     7
 48
0.176777
100
AcDbLine
 10
6407.501465
 20
2476.232422
 30
0.0
 11
6412.501465
 21
2481.232422
 31
0.0
210
0.0
220
0.0
230
1.0
  0
LINE
  5
963
100
AcDbEntity
  8
0
 62
     7
 48
0.176777
100
AcDbLine
 10
6290.500977
 20
2476.232422
 30
0.0
 11
6285.500977
 21
2481.232422
 31
0.0
210
0.0
220
0.0
230
1.0
  0
LINE
  5
964
100
AcDbEntity
  8
0
 62
     7
100
AcDbLine
 10
6407.501465
 20
2476.232422
 30
0.0
 11
6290.500977
 21
2476.232422
 31
0.0
210
0.0
220
0.0
230
1.0
  0
LINE
  5
965
100
AcDbEntity
  8
0
 62
     7
100
AcDbLine
 10
7583.270508
 20
2488.232422
 30
0.0
 11
7456.27002
 21
2488.232422
 31
0.0
210
0.0
220
0.0
230
1.0
  0
LINE
  5
966
100
AcDbEntity
  8
0
 62
     7
 48
0.175
100
AcDbLine
 10
7583.270508
 20
2488.232422
 30
0.0
 11
7583.270508
 21
2481.232422
 31
0.0
210
0.0
220
0.0
230
1.0
  0
LINE
  5
967
100
AcDbEntity
  8
0
 62
     7
 48
0.175
100
AcDbLine
 10
7456.27002
 20
2488.232422
 30
0.0
 11
7456.27002
 21
2481.232422
 31
0.0
210
0.0
220
0.0
230
1.0
  0
LINE
  5
968
100
AcDbEntity
  8
0
 62
     7
100
AcDbLine
 10
7583.270508
 20
2481.232422
 30
0.0
 11
7456.27002
 21
2481.232422
 31
0.0
210
0.0
220
0.0
230
1.0
  0
LINE
  5
969
100
AcDbEntity
  8
0
 62
     7
 48
0.176777
100
AcDbLine
 10
7578.270508
 20
2476.232422
 30
0.0
 11
7583.270508
 21
2481.232422
 31
0.0
210
0.0
220
0.0
230
1.0
  0
LINE
  5
96A
100
AcDbEntity
  8
0
 62
     7
 48
0.176777
100
AcDbLine
 10
7461.27002
 20
2476.232422
 30
0.0
 11
7456.27002
 21
2481.232422
 31
0.0
210
0.0
220
0.0
230
1.0
  0
LINE
  5
96B
100
AcDbEntity
  8
0
 62
     7
100
AcDbLine
 10
7578.270508
 20
2476.232422
 30
0.0
 11
7461.27002
 21
2476.232422
 31
0.0
210
0.0
220
0.0
230
1.0
  0
LINE
  5
96C
100
AcDbEntity
  8
0
 62
     7
100
AcDbLine
 10
7944.621094
 20
2488.232422
 30
0.0
 11
7817.621582
 21
2488.232422
 31
0.0
210
0.0
220
0.0
230
1.0
  0
LINE
  5
96D
100
AcDbEntity
  8
0
 62
     7
 48
0.175
100
AcDbLine
 10
7944.621094
 20
2488.232422
 30
0.0
 11
7944.621094
 21
2481.232422
 31
0.0
210
0.0
220
0.0
230
1.0
  0
LINE
  5
96E
100
AcDbEntity
  8
0
 62
     7
 48
0.175
100
AcDbLine
 10
7817.621582
 20
2488.232422
 30
0.0
 11
7817.621582
 21
2481.232422
 31
0.0
210
0.0
220
0.0
230
1.0
  0
LINE
  5
96F
100
AcDbEntity
  8
0
 62
     7
100
AcDbLine
 10
7944.621094
 20
2481.232422
 30
0.0
 11
7817.621582
 21
2481.232422
 31
0.0
210
0.0
220
0.0
230
1.0
  0
LINE
  5
970
100
AcDbEntity
  8
0
 62
     7
 48
0.176777
100
AcDbLine
 10
7939.621094
 20
2476.232422
 30
0.0
 11
7944.621094
 21
2481.232422
 31
0.0
210
0.0
220
0.0
230
1.0
  0
LINE
  5
971
100
AcDbEntity
  8
0
 62
     7
 48
0.176777
100
AcDbLine
 10
7822.621582
 20
2476.232422
 30
0.0
 11
7817.621582
 21
2481.232422
 31
0.0
210
0.0
220
0.0
230
1.0
  0
LINE
  5
972
100
AcDbEntity
  8
0
 62
     7
100
AcDbLine
 10
7939.621094
 20
2476.232422
 30
0.0
 11
7822.621582
 21
2476.232422
 31
0.0
210
0.0
220
0.0
230
1.0
  0
LINE
  5
973
100
AcDbEntity
  8
0
 62
     7
100
AcDbLine
 10
7456.27002
 20
2488.232422
 30
0.0
 11
7334.001465
 21
2488.232422
 31
0.0
210
0.0
220
0.0
230
1.0
  0
LINE
  5
974
100
AcDbEntity
  8
0
 62
     7
 48
0.175
100
AcDbLine
 10
7334.001465
 20
2488.232422
 30
0.0
 11
7334.001465
 21
2481.232422
 31
0.0
210
0.0
220
0.0
230
1.0
  0
LINE
  5
975
100
AcDbEntity
  8
0
 62
     7
100
AcDbLine
 10
7456.27002
 20
2481.232422
 30
0.0
 11
7334.001465
 21
2481.232422
 31
0.0
210
0.0
220
0.0
230
1.0
  0
LINE
  5
976
100
AcDbEntity
  8
0
 62
     7
 48
0.09314
100
AcDbLine
 10
7456.001465
 20
2476.232422
 30
0.0
 11
7458.635742
 21
2478.866943
 31
0.0
210
0.0
220
0.0
230
1.0
  0
LINE
  5
977
100
AcDbEntity
  8
0
 62
     7
 48
0.176777
100
AcDbLine
 10
7339.001465
 20
2476.232422
 30
0.0
 11
7334.001465
 21
2481.232422
 31
0.0
210
0.0
220
0.0
230
1.0
  0
LINE
  5
978
100
AcDbEntity
  8
0
 62
     7
100
AcDbLine
 10
7456.001465
 20
2476.232422
 30
0.0
 11
7339.001465
 21
2476.232422
 31
0.0
210
0.0
220
0.0
230
1.0
  0
LINE
  5
979
100
AcDbEntity
  8
0
 62
     7
100
AcDbLine
 10
6851.000977
 20
2488.232422
 30
0.0
 11
6724.001465
 21
2488.232422
 31
0.0
210
0.0
220
0.0
230
1.0
  0
LINE
  5
97A
100
AcDbEntity
  8
0
 62
     7
 48
0.175
100
AcDbLine
 10
6851.000977
 20
2488.232422
 30
0.0
 11
6851.000977
 21
2481.232422
 31
0.0
210
0.0
220
0.0
230
1.0
  0
LINE
  5
97B
100
AcDbEntity
  8
0
 62
     7
 48
0.175
100
AcDbLine
 10
6724.001465
 20
2488.232422
 30
0.0
 11
6724.001465
 21
2481.232422
 31
0.0
210
0.0
220
0.0
230
1.0
  0
LINE
  5
97C
100
AcDbEntity
  8
0
 62
     7
100
AcDbLine
 10
6851.000977
 20
2481.232422
 30
0.0
 11
6724.001465
 21
2481.232422
 31
0.0
210
0.0
220
0.0
230
1.0
  0
LINE
  5
97D
100
AcDbEntity
  8
0
 62
     7
 48
0.176777
100
AcDbLine
 10
6846.000977
 20
2476.232422
 30
0.0
 11
6851.000977
 21
2481.232422
 31
0.0
210
0.0
220
0.0
230
1.0
  0
LINE
  5
97E
100
AcDbEntity
  8
0
 62
     7
 48
0.176777
100
AcDbLine
 10
6729.001465
 20
2476.232422
 30
0.0
 11
6724.001465
 21
2481.232422
 31
0.0
210
0.0
220
0.0
230
1.0
  0
LINE
  5
97F
100
AcDbEntity
  8
0
 62
     7
100
AcDbLine
 10
6846.000977
 20
2476.232422
 30
0.0
 11
6729.001465
 21
2476.232422
 31
0.0
210
0.0
220
0.0
230
1.0
  0
LINE
  5
980
100
AcDbEntity
  8
0
 62
     7
100
AcDbLine
 10
6241.000977
 20
2488.232422
 30
0.0
 11
6118.732422
 21
2488.232422
 31
0.0
210
0.0
220
0.0
230
1.0
  0
LINE
  5
981
100
AcDbEntity
  8
0
 62
     7
 48
0.175
100
AcDbLine
 10
6241.000977
 20
2488.232422
 30
0.0
 11
6241.000977
 21
2481.232422
 31
0.0
210
0.0
220
0.0
230
1.0
  0
LINE
  5
982
100
AcDbEntity
  8
0
 62
     7
100
AcDbLine
 10
6241.000977
 20
2481.232422
 30
0.0
 11
6118.732422
 21
2481.232422
 31
0.0
210
0.0
220
0.0
230
1.0
  0
LINE
  5
983
100
AcDbEntity
  8
0
 62
     7
 48
0.176777
100
AcDbLine
 10
6236.000977
 20
2476.232422
 30
0.0
 11
6241.000977
 21
2481.232422
 31
0.0
210
0.0
220
0.0
230
1.0
  0
LINE
  5
984
100
AcDbEntity
  8
0
 62
     7
 48
0.093157
100
AcDbLine
 10
6119.001465
 20
2476.232422
 30
0.0
 11
6116.366699
 21
2478.867432
 31
0.0
210
0.0
220
0.0
230
1.0
  0
LINE
  5
985
100
AcDbEntity
  8
0
 62
     7
100
AcDbLine
 10
6236.000977
 20
2476.232422
 30
0.0
 11
6119.001465
 21
2476.232422
 31
0.0
210
0.0
220
0.0
230
1.0
  0
LINE
  5
986
100
AcDbEntity
  8
0
 62
     7
100
AcDbLine
 10
5757.380859
 20
2488.232422
 30
0.0
 11
5630.381348
 21
2488.232422
 31
0.0
210
0.0
220
0.0
230
1.0
  0
LINE
  5
987
100
AcDbEntity
  8
0
 62
     7
 48
0.175
100
AcDbLine
 10
5757.380859
 20
2488.232422
 30
0.0
 11
5757.380859
 21
2481.232422
 31
0.0
210
0.0
220
0.0
230
1.0
  0
LINE
  5
988
100
AcDbEntity
  8
0
 62
     7
 48
0.175
100
AcDbLine
 10
5630.381348
 20
2488.232422
 30
0.0
 11
5630.381348
 21
2481.232422
 31
0.0
210
0.0
220
0.0
230
1.0
  0
LINE
  5
989
100
AcDbEntity
  8
0
 62
     7
100
AcDbLine
 10
5757.380859
 20
2481.232422
 30
0.0
 11
5630.381348
 21
2481.232422
 31
0.0
210
0.0
220
0.0
230
1.0
  0
LINE
  5
98A
100
AcDbEntity
  8
0
 62
     7
 48
0.176777
100
AcDbLine
 10
5752.380859
 20
2476.232422
 30
0.0
 11
5757.380859
 21
2481.232422
 31
0.0
210
0.0
220
0.0
230
1.0
  0
LINE
  5
98B
100
AcDbEntity
  8
0
 62
     7
 48
0.176777
100
AcDbLine
 10
5635.381348
 20
2476.232422
 30
0.0
 11
5630.381348
 21
2481.232422
 31
0.0
210
0.0
220
0.0
230
1.0
  0
LINE
  5
98C
100
AcDbEntity
  8
0
 62
     7
100
AcDbLine
 10
5752.380859
 20
2476.232422
 30
0.0
 11
5635.381348
 21
2476.232422
 31
0.0
210
0.0
220
0.0
230
1.0
  0
LINE
  5
98D
100
AcDbEntity
  8
0
 62
     7
100
AcDbLine
 10
6118.732422
 20
2488.232422
 30
0.0
 11
5991.731934
 21
2488.232422
 31
0.0
210
0.0
220
0.0
230
1.0
  0
LINE
  5
98E
100
AcDbEntity
  8
0
 62
     7
 48
0.175
100
AcDbLine
 10
6118.732422
 20
2488.232422
 30
0.0
 11
6118.732422
 21
2481.232422
 31
0.0
210
0.0
220
0.0
230
1.0
  0
LINE
  5
98F
100
AcDbEntity
  8
0
 62
     7
 48
0.175
100
AcDbLine
 10
5991.731934
 20
2488.232422
 30
0.0
 11
5991.731934
 21
2481.232422
 31
0.0
210
0.0
220
0.0
230
1.0
  0
LINE
  5
990
100
AcDbEntity
  8
0
 62
     7
100
AcDbLine
 10
6118.732422
 20
2481.232422
 30
0.0
 11
5991.731934
 21
2481.232422
 31
0.0
210
0.0
220
0.0
230
1.0
  0
LINE
  5
991
100
AcDbEntity
  8
0
 62
     7
 48
0.176777
100
AcDbLine
 10
6113.732422
 20
2476.232422
 30
0.0
 11
6118.732422
 21
2481.232422
 31
0.0
210
0.0
220
0.0
230
1.0
  0
LINE
  5
992
100
AcDbEntity
  8
0
 62
     7
 48
0.176777
100
AcDbLine
 10
5996.731934
 20
2476.232422
 30
0.0
 11
5991.731934
 21
2481.232422
 31
0.0
210
0.0
220
0.0
230
1.0
  0
LINE
  5
993
100
AcDbEntity
  8
0
 62
     7
100
AcDbLine
 10
6113.732422
 20
2476.232422
 30
0.0
 11
5996.731934
 21
2476.232422
 31
0.0
210
0.0
220
0.0
230
1.0
  0
LINE
  5
994
100
AcDbEntity
  8
0
 62
     7
100
AcDbLine
 10
6824.501465
 20
2972.232666
 30
0.0
 11
6750.500977
 21
2972.232666
 31
0.0
210
0.0
220
0.0
230
1.0
  0
LINE
  5
995
100
AcDbEntity
  8
0
 62
     7
100
AcDbLine
 10
6750.500977
 20
2972.232666
 30
0.0
 11
6750.500977
 21
3072.232666
 31
0.0
210
0.0
220
0.0
230
1.0
  0
LINE
  5
996
100
AcDbEntity
  8
0
 62
     7
100
AcDbLine
 10
6750.500977
 20
3072.232666
 30
0.0
 11
6824.501465
 21
3072.232666
 31
0.0
210
0.0
220
0.0
230
1.0
  0
LINE
  5
997
100
AcDbEntity
  8
0
 62
     7
100
AcDbLine
 10
6824.501465
 20
3072.232666
 30
0.0
 11
6824.501465
 21
2972.232666
 31
0.0
210
0.0
220
0.0
230
1.0
  0
POLYLINE
  5
998
100
AcDbEntity
  8
0
 62
     7
100
AcDb2dPolyline
 66
     1
 10
0.0
 20
0.0
 30
0.0
 71
     6
  0
VERTEX
  5
999
100
AcDbEntity
  8
0
100
AcDbVertex
100
AcDb2dVertex
 10
4337.329102
 20
4490.05127
 30
0.0
  0
VERTEX
  5
99A
100
AcDbEntity
  8
0
100
AcDbVertex
100
AcDb2dVertex
 10
4317.329102
 20
4490.05127
 30
0.0
  0
VERTEX
  5
99B
100
AcDbEntity
  8
0
100
AcDbVertex
100
AcDb2dVertex
 10
4300.662109
 20
4501.834961
 30
0.0
  0
VERTEX
  5
99C
100
AcDbEntity
  8
0
100
AcDbVertex
100
AcDb2dVertex
 10
4293.995605
 20
4501.834961
 30
0.0
  0
VERTEX
  5
99D
100
AcDbEntity
  8
0
100
AcDbVertex
100
AcDb2dVertex
 10
4293.995605
 20
4475.911133
 30
0.0
  0
VERTEX
  5
99E
100
AcDbEntity
  8
0
100
AcDbVertex
100
AcDb2dVertex
 10
4303.995605
 20
4475.911133
 30
0.0
  0
SEQEND
  5
99F
100
AcDbEntity
  8
0
  0
POLYLINE
  5
9A0
100
AcDbEntity
  8
0
 62
     7
100
AcDb2dPolyline
 66
     1
 10
0.0
 20
0.0
 30
0.0
 71
    10
  0
VERTEX
  5
9A1
100
AcDbEntity
  8
0
100
AcDbVertex
100
AcDb2dVertex
 10
4300.662109
 20
4511.834961
 30
0.0
  0
VERTEX
  5
9A2
100
AcDbEntity
  8
0
100
AcDbVertex
100
AcDb2dVertex
 10
4293.995605
 20
4516.54834
 30
0.0
  0
VERTEX
  5
9A3
100
AcDbEntity
  8
0
100
AcDbVertex
100
AcDb2dVertex
 10
4293.995605
 20
4530.688477
 30
0.0
  0
VERTEX
  5
9A4
100
AcDbEntity
  8
0
100
AcDbVertex
100
AcDb2dVertex
 10
4300.662109
 20
4535.401367
 30
0.0
  0
VERTEX
  5
9A5
100
AcDbEntity
  8
0
100
AcDbVertex
100
AcDb2dVertex
 10
4310.662109
 20
4535.401367
 30
0.0
  0
VERTEX
  5
9A6
100
AcDbEntity
  8
0
100
AcDbVertex
100
AcDb2dVertex
 10
4317.329102
 20
4530.688477
 30
0.0
  0
VERTEX
  5
9A7
100
AcDbEntity
  8
0
100
AcDbVertex
100
AcDb2dVertex
 10
4317.329102
 20
4521.26123
 30
0.0
  0
VERTEX
  5
9A8
100
AcDbEntity
  8
0
100
AcDbVertex
100
AcDb2dVertex
 10
4330.662109
 20
4511.834961
 30
0.0
  0
VERTEX
  5
9A9
100
AcDbEntity
  8
0
100
AcDbVertex
100
AcDb2dVertex
 10
4337.329102
 20
4511.834961
 30
0.0
  0
VERTEX
  5
9AA
100
AcDbEntity
  8
0
100
AcDbVertex
100
AcDb2dVertex
 10
4337.329102
 20
4537.757813
 30
0.0
  0
SEQEND
  5
9AB
100
AcDbEntity
  8
0
  0
POLYLINE
  5
9AC
100
AcDbEntity
  8
0
 62
     7
100
AcDb2dPolyline
 66
     1
 10
0.0
 20
0.0
 30
0.0
 71
    12
  0
VERTEX
  5
9AD
100
AcDbEntity
  8
0
100
AcDbVertex
100
AcDb2dVertex
 10
4320.662109
 20
4547.757813
 30
0.0
  0
VERTEX
  5
9AE
100
AcDbEntity
  8
0
100
AcDbVertex
100
AcDb2dVertex
 10
4310.662109
 20
4554.828125
 30
0.0
  0
VERTEX
  5
9AF
100
AcDbEntity
  8
0
100
AcDbVertex
100
AcDb2dVertex
 10
4310.662109
 20
4566.611328
 30
0.0
  0
VERTEX
  5
9B0
100
AcDbEntity
  8
0
100
AcDbVertex
100
AcDb2dVertex
 10
4320.662109
 20
4573.681641
 30
0.0
  0
VERTEX
  5
9B1
100
AcDbEntity
  8
0
100
AcDbVertex
100
AcDb2dVertex
 10
4327.329102
 20
4573.681641
 30
0.0
  0
VERTEX
  5
9B2
100
AcDbEntity
  8
0
100
AcDbVertex
100
AcDb2dVertex
 10
4337.329102
 20
4566.611328
 30
0.0
  0
VERTEX
  5
9B3
100
AcDbEntity
  8
0
100
AcDbVertex
100
AcDb2dVertex
 10
4337.329102
 20
4554.828125
 30
0.0
  0
VERTEX
  5
9B4
100
AcDbEntity
  8
0
100
AcDbVertex
100
AcDb2dVertex
 10
4327.329102
 20
4547.757813
 30
0.0
  0
VERTEX
  5
9B5
100
AcDbEntity
  8
0
100
AcDbVertex
100
AcDb2dVertex
 10
4303.995605
 20
4547.757813
 30
0.0
  0
VERTEX
  5
9B6
100
AcDbEntity
  8
0
100
AcDbVertex
100
AcDb2dVertex
 10
4293.995605
 20
4554.828125
 30
0.0
  0
VERTEX
  5
9B7
100
AcDbEntity
  8
0
100
AcDbVertex
100
AcDb2dVertex
 10
4293.995605
 20
4568.968262
 30
0.0
  0
VERTEX
  5
9B8
100
AcDbEntity
  8
0
100
AcDbVertex
100
AcDb2dVertex
 10
4300.662109
 20
4573.681641
 30
0.0
  0
SEQEND
  5
9B9
100
AcDbEntity
  8
0
  0
POLYLINE
  5
9BA
100
AcDbEntity
  8
0
 62
     7
100
AcDb2dPolyline
 66
     1
 10
0.0
 20
0.0
 30
0.0
 70
     1
 71
     4
  0
VERTEX
  5
9BB
100
AcDbEntity
  8
0
100
AcDbVertex
100
AcDb2dVertex
 10
4337.329102
 20
4583.681641
 30
0.0
  0
VERTEX
  5
9BC
100
AcDbEntity
  8
0
100
AcDbVertex
100
AcDb2dVertex
 10
4337.329102
 20
4586.038086
 30
0.0
  0
VERTEX
  5
9BD
100
AcDbEntity
  8
0
100
AcDbVertex
100
AcDb2dVertex
 10
4333.995605
 20
4586.038086
 30
0.0
  0
VERTEX
  5
9BE
100
AcDbEntity
  8
0
100
AcDbVertex
100
AcDb2dVertex
 10
4333.995605
 20
4583.681641
 30
0.0
  0
SEQEND
  5
9BF
100
AcDbEntity
  8
0
  0
POLYLINE
  5
9C0
100
AcDbEntity
  8
0
 62
     7
100
AcDb2dPolyline
 66
     1
 10
0.0
 20
0.0
 30
0.0
 71
    10
  0
VERTEX
  5
9C1
100
AcDbEntity
  8
0
100
AcDbVertex
100
AcDb2dVertex
 10
4330.662109
 20
4596.038086
 30
0.0
  0
VERTEX
  5
9C2
100
AcDbEntity
  8
0
100
AcDbVertex
100
AcDb2dVertex
 10
4337.329102
 20
4600.751465
 30
0.0
  0
VERTEX
  5
9C3
100
AcDbEntity
  8
0
100
AcDbVertex
100
AcDb2dVertex
 10
4337.329102
 20
4614.891602
 30
0.0
  0
VERTEX
  5
9C4
100
AcDbEntity
  8
0
100
AcDbVertex
100
AcDb2dVertex
 10
4327.329102
 20
4621.961426
 30
0.0
  0
VERTEX
  5
9C5
100
AcDbEntity
  8
0
100
AcDbVertex
100
AcDb2dVertex
 10
4320.662109
 20
4621.961426
 30
0.0
  0
VERTEX
  5
9C6
100
AcDbEntity
  8
0
100
AcDbVertex
100
AcDb2dVertex
 10
4310.662109
 20
4614.891602
 30
0.0
  0
VERTEX
  5
9C7
100
AcDbEntity
  8
0
100
AcDbVertex
100
AcDb2dVertex
 10
4310.662109
 20
4603.10791
 30
0.0
  0
VERTEX
  5
9C8
100
AcDbEntity
  8
0
100
AcDbVertex
100
AcDb2dVertex
 10
4317.329102
 20
4596.038086
 30
0.0
  0
VERTEX
  5
9C9
100
AcDbEntity
  8
0
100
AcDbVertex
100
AcDb2dVertex
 10
4293.995605
 20
4596.038086
 30
0.0
  0
VERTEX
  5
9CA
100
AcDbEntity
  8
0
100
AcDbVertex
100
AcDb2dVertex
 10
4293.995605
 20
4619.60498
 30
0.0
  0
SEQEND
  5
9CB
100
AcDbEntity
  8
0
  0
LINE
  5
9CC
100
AcDbEntity
  8
0
 62
     7
100
AcDbLine
 10
4260.964844
 20
4186.436035
 30
0.0
 11
4370.662109
 21
4186.436035
 31
0.0
210
0.0
220
0.0
230
1.0
  0
LINE
  5
9CD
100
AcDbEntity
  8
0
 62
     7
100
AcDbLine
 10
3813.9646
 20
4911.436523
 30
0.0
 11
4370.662109
 21
4911.436523
 31
0.0
210
0.0
220
0.0
230
1.0
  0
POLYLINE
  5
9CE
100
AcDbEntity
  8
0
 62
     7
100
AcDb2dPolyline
 66
     1
 10
0.0
 20
0.0
 30
0.0
 71
     3
  0
VERTEX
  5
9CF
100
AcDbEntity
  8
0
100
AcDbVertex
100
AcDb2dVertex
 10
4340.309082
 20
4225.073242
 30
0.0
  0
VERTEX
  5
9D0
100
AcDbEntity
  8
0
100
AcDbVertex
100
AcDb2dVertex
 10
4350.662109
 20
4186.436035
 30
0.0
  0
VERTEX
  5
9D1
100
AcDbEntity
  8
0
100
AcDbVertex
100
AcDb2dVertex
 10
4361.014648
 20
4225.073242
 30
0.0
  0
SEQEND
  5
9D2
100
AcDbEntity
  8
0
  0
POLYLINE
  5
9D3
100
AcDbEntity
  8
0
 62
     7
100
AcDb2dPolyline
 66
     1
 10
0.0
 20
0.0
 30
0.0
 71
     3
  0
VERTEX
  5
9D4
100
AcDbEntity
  8
0
100
AcDbVertex
100
AcDb2dVertex
 10
4361.014648
 20
4872.799316
 30
0.0
  0
VERTEX
  5
9D5
100
AcDbEntity
  8
0
100
AcDbVertex
100
AcDb2dVertex
 10
4350.662109
 20
4911.436523
 30
0.0
  0
VERTEX
  5
9D6
100
AcDbEntity
  8
0
100
AcDbVertex
100
AcDb2dVertex
 10
4340.309082
 20
4872.799316
 30
0.0
  0
SEQEND
  5
9D7
100
AcDbEntity
  8
0
  0
LINE
  5
9D8
100
AcDbEntity
  8
0
 62
     7
100
AcDbLine
 10
4350.662109
 20
4186.436035
 30
0.0
 11
4350.662109
 21
4911.436523
 31
0.0
210
0.0
220
0.0
230
1.0
  0
LINE
  5
9D9
100
AcDbEntity
  8
0
 62
     7
100
AcDbLine
 10
3226.541748
 20
4911.436523
 30
0.0
 11
2815.387451
 21
4911.436523
 31
0.0
210
0.0
220
0.0
230
1.0
  0
LINE
  5
9DA
100
AcDbEntity
  8
0
 62
     7
 48
0.485571
100
AcDbLine
 10
2815.387451
 20
4911.436523
 30
0.0
 11
2795.9646
 21
4911.436523
 31
0.0
210
0.0
220
0.0
230
1.0
  0
LINE
  5
9DB
100
AcDbEntity
  8
0
 62
     7
100
AcDbLine
 10
2268.167236
 20
4911.436523
 30
0.0
 11
2247.964355
 21
4911.436523
 31
0.0
210
0.0
220
0.0
230
1.0
  0
LINE
  5
9DC
100
AcDbEntity
  8
0
 62
     7
 48
0.485571
100
AcDbLine
 10
3226.541748
 20
4911.436523
 30
0.0
 11
3245.9646
 21
4911.436523
 31
0.0
210
0.0
220
0.0
230
1.0
  0
LINE
  5
9DD
100
AcDbEntity
  8
0
 62
     7
100
AcDbLine
 10
3773.761963
 20
4911.436523
 30
0.0
 11
3793.9646
 21
4911.436523
 31
0.0
210
0.0
220
0.0
230
1.0
  0
LINE
  5
9DE
100
AcDbEntity
  8
0
 62
     7
100
AcDbLine
 10
3793.9646
 20
4911.436523
 30
0.0
 11
4240.964844
 21
4196.436035
 31
0.0
210
0.0
220
0.0
230
1.0
  0
LINE
  5
9DF
100
AcDbEntity
  8
0
 62
     7
 48
0.25
100
AcDbLine
 10
4240.964844
 20
4196.436035
 30
0.0
 11
4240.964844
 21
4186.436035
 31
0.0
210
0.0
220
0.0
230
1.0
  0
LINE
  5
9E0
100
AcDbEntity
  8
0
 62
     7
100
AcDbLine
 10
3783.350586
 20
4911.436523
 30
0.0
 11
2258.578613
 21
4911.436523
 31
0.0
210
0.0
220
0.0
230
1.0
  0
LINE
  5
9E1
100
AcDbEntity
  8
0
 62
     7
100
AcDbLine
 10
1800.964478
 20
4186.436035
 30
0.0
 11
4240.964844
 21
4186.436035
 31
0.0
210
0.0
220
0.0
230
1.0
  0
LINE
  5
9E2
100
AcDbEntity
  8
0
 62
     7
 48
0.265356
100
AcDbLine
 10
2247.964355
 20
4911.436523
 30
0.0
 11
2258.578613
 21
4911.436523
 31
0.0
210
0.0
220
0.0
230
1.0
  0
LINE
  5
9E3
100
AcDbEntity
  8
0
 62
     7
 48
0.26535
100
AcDbLine
 10
3793.9646
 20
4911.436523
 30
0.0
 11
3783.350586
 21
4911.436523
 31
0.0
210
0.0
220
0.0
230
1.0
  0
LINE
  5
9E4
100
AcDbEntity
  8
0
 62
     7
100
AcDbLine
 10
1800.964478
 20
4196.436035
 30
0.0
 11
2247.964355
 21
4911.436523
 31
0.0
210
0.0
220
0.0
230
1.0
  0
LINE
  5
9E5
100
AcDbEntity
  8
0
 62
     7
 48
0.163379
100
AcDbLine
 10
1800.964478
 20
4196.436035
 30
0.0
 11
1800.964478
 21
4189.900879
 31
0.0
210
0.0
220
0.0
230
1.0
  0
LINE
  5
9E6
100
AcDbEntity
  8
0
 62
     7
 48
0.086621
100
AcDbLine
 10
1800.964478
 20
4186.436035
 30
0.0
 11
1800.964478
 21
4189.900879
 31
0.0
210
0.0
220
0.0
230
1.0
  0
LINE
  5
9E7
100
AcDbEntity
  8
0
 62
     7
100
AcDbLine
 10
4240.964844
 20
4196.436035
 30
0.0
 11
3793.9646
 21
4911.436523
 31
0.0
210
0.0
220
0.0
230
1.0
  0
LINE
  5
9E8
100
AcDbEntity
  8
0
 62
     7
 48
0.163379
100
AcDbLine
 10
4240.964844
 20
4189.900879
 30
0.0
 11
4240.964844
 21
4196.436035
 31
0.0
210
0.0
220
0.0
230
1.0
  0
LINE
  5
9E9
100
AcDbEntity
  8
0
 62
     7
 48
0.086621
100
AcDbLine
 10
4240.964844
 20
4186.436035
 30
0.0
 11
4240.964844
 21
4189.900879
 31
0.0
210
0.0
220
0.0
230
1.0
  0
LINE
  5
9EA
100
AcDbEntity
  8
0
 62
     7
 48
0.007507
100
AcDbLine
 10
3057.964355
 20
4911.736816
 30
0.0
 11
3057.964355
 21
4911.436523
 31
0.0
210
0.0
220
0.0
230
1.0
  0
LINE
  5
9EB
100
AcDbEntity
  8
0
 62
     7
100
AcDbLine
 10
3057.964355
 20
4911.736816
 30
0.0
 11
2983.9646
 21
4911.736816
 31
0.0
210
0.0
220
0.0
230
1.0
  0
LINE
  5
9EC
100
AcDbEntity
  8
0
 62
     7
 48
0.007507
100
AcDbLine
 10
2983.9646
 20
4911.736816
 30
0.0
 11
2983.9646
 21
4911.436523
 31
0.0
210
0.0
220
0.0
230
1.0
  0
LINE
  5
9ED
100
AcDbEntity
  8
0
 62
     7
100
AcDbLine
 10
2258.578613
 20
1094.964355
 30
0.0
 11
3783.350586
 21
1094.964355
 31
0.0
210
0.0
220
0.0
230
1.0
  0
LINE
  5
9EE
100
AcDbEntity
  8
0
 62
     7
100
AcDbLine
 10
4240.964844
 20
1819.964478
 30
0.0
 11
1800.964478
 21
1819.964478
 31
0.0
210
0.0
220
0.0
230
1.0
  0
LINE
  5
9EF
100
AcDbEntity
  8
0
 62
     7
 48
0.26535
100
AcDbLine
 10
3793.9646
 20
1094.964355
 30
0.0
 11
3783.350586
 21
1094.964355
 31
0.0
210
0.0
220
0.0
230
1.0
  0
LINE
  5
9F0
100
AcDbEntity
  8
0
 62
     7
 48
0.265356
100
AcDbLine
 10
2247.964355
 20
1094.964355
 30
0.0
 11
2258.578613
 21
1094.964355
 31
0.0
210
0.0
220
0.0
230
1.0
  0
LINE
  5
9F1
100
AcDbEntity
  8
0
 62
     7
100
AcDbLine
 10
4240.964844
 20
1809.964478
 30
0.0
 11
3793.9646
 21
1094.964355
 31
0.0
210
0.0
220
0.0
230
1.0
  0
LINE
  5
9F2
100
AcDbEntity
  8
0
 62
     7
 48
0.163388
100
AcDbLine
 10
4240.964844
 20
1809.964478
 30
0.0
 11
4240.964844
 21
1816.5
 31
0.0
210
0.0
220
0.0
230
1.0
  0
LINE
  5
9F3
100
AcDbEntity
  8
0
 62
     7
 48
0.086612
100
AcDbLine
 10
4240.964844
 20
1819.964478
 30
0.0
 11
4240.964844
 21
1816.5
 31
0.0
210
0.0
220
0.0
230
1.0
  0
LINE
  5
9F4
100
AcDbEntity
  8
0
 62
     7
100
AcDbLine
 10
1800.964478
 20
1809.964478
 30
0.0
 11
2247.964355
 21
1094.964355
 31
0.0
210
0.0
220
0.0
230
1.0
  0
LINE
  5
9F5
100
AcDbEntity
  8
0
 62
     7
 48
0.163388
100
AcDbLine
 10
1800.964478
 20
1816.5
 30
0.0
 11
1800.964478
 21
1809.964478
 31
0.0
210
0.0
220
0.0
230
1.0
  0
LINE
  5
9F6
100
AcDbEntity
  8
0
 62
     7
 48
0.086612
100
AcDbLine
 10
1800.964478
 20
1819.964478
 30
0.0
 11
1800.964478
 21
1816.5
 31
0.0
210
0.0
220
0.0
230
1.0
  0
LINE
  5
9F7
100
AcDbEntity
  8
0
 62
     7
100
AcDbLine
 10
3002.964355
 20
1819.964478
 30
0.0
 11
3038.9646
 21
1819.964478
 31
0.0
210
0.0
220
0.0
230
1.0
  0
LINE
  5
9F8
100
AcDbEntity
  8
0
 62
     7
 48
0.374405
100
AcDbLine
 10
1815.940674
 20
1819.964478
 30
0.0
 11
1800.964478
 21
1819.964478
 31
0.0
210
0.0
220
0.0
230
1.0
  0
LINE
  5
9F9
100
AcDbEntity
  8
0
 62
     7
100
AcDbLine
 10
2247.964355
 20
1094.964355
 30
0.0
 11
1800.964478
 21
1809.964478
 31
0.0
210
0.0
220
0.0
230
1.0
  0
LINE
  5
9FA
100
AcDbEntity
  8
0
 62
     7
 48
0.25
100
AcDbLine
 10
1800.964478
 20
1809.964478
 30
0.0
 11
1800.964478
 21
1819.964478
 31
0.0
210
0.0
220
0.0
230
1.0
  0
LINE
  5
9FB
100
AcDbEntity
  8
0
 62
     7
100
AcDbLine
 10
2392.964355
 20
1819.964478
 30
0.0
 11
2428.964355
 21
1819.964478
 31
0.0
210
0.0
220
0.0
230
1.0
  0
LINE
  5
9FC
100
AcDbEntity
  8
0
 62
     7
100
AcDbLine
 10
3612.964844
 20
1819.964478
 30
0.0
 11
3648.9646
 21
1819.964478
 31
0.0
210
0.0
220
0.0
230
1.0
  0
LINE
  5
9FD
100
AcDbEntity
  8
0
 62
     7
 48
0.374402
100
AcDbLine
 10
4240.964844
 20
1819.964478
 30
0.0
 11
4225.98877
 21
1819.964478
 31
0.0
210
0.0
220
0.0
230
1.0
  0
CIRCLE
  5
9FE
100
AcDbEntity
  8
0
 62
     7
100
AcDbCircle
 10
2582.4646
 20
1400.464478
 30
0.0
 40
63.500005
210
0.0
220
0.0
230
1.0
  0
CIRCLE
  5
9FF
100
AcDbEntity
  8
0
 62
     7
100
AcDbCircle
 10
2582.4646
 20
1400.464478
 30
0.0
 40
58.500005
210
0.0
220
0.0
230
1.0
  0
CIRCLE
  5
A00
100
AcDbEntity
  8
0
 62
     7
100
AcDbCircle
 10
2613.930908
 20
1368.998291
 30
0.0
 40
2.25
210
0.0
220
0.0
230
1.0
  0
CIRCLE
  5
A01
100
AcDbEntity
  8
0
 62
     7
100
AcDbCircle
 10
2613.930908
 20
1368.998291
 30
0.0
 40
4.75
210
0.0
220
0.0
230
1.0
  0
CIRCLE
  5
A02
100
AcDbEntity
  8
0
 62
     7
100
AcDbCircle
 10
2613.930908
 20
1431.930664
 30
0.0
 40
2.25
210
0.0
220
0.0
230
1.0
  0
CIRCLE
  5
A03
100
AcDbEntity
  8
0
 62
     7
100
AcDbCircle
 10
2613.930908
 20
1431.930664
 30
0.0
 40
4.75
210
0.0
220
0.0
230
1.0
  0
CIRCLE
  5
A04
100
AcDbEntity
  8
0
 62
     7
100
AcDbCircle
 10
2550.998047
 20
1431.930664
 30
0.0
 40
2.25
210
0.0
220
0.0
230
1.0
  0
CIRCLE
  5
A05
100
AcDbEntity
  8
0
 62
     7
100
AcDbCircle
 10
2550.998047
 20
1431.930664
 30
0.0
 40
4.75
210
0.0
220
0.0
230
1.0
  0
CIRCLE
  5
A06
100
AcDbEntity
  8
0
 62
     7
100
AcDbCircle
 10
2550.998047
 20
1368.998291
 30
0.0
 40
2.25
210
0.0
220
0.0
230
1.0
  0
CIRCLE
  5
A07
100
AcDbEntity
  8
0
 62
     7
100
AcDbCircle
 10
2550.998047
 20
1368.998291
 30
0.0
 40
4.75
210
0.0
220
0.0
230
1.0
  0
CIRCLE
  5
A08
100
AcDbEntity
  8
0
 62
     7
100
AcDbCircle
 10
3459.464844
 20
1400.464478
 30
0.0
 40
63.500005
210
0.0
220
0.0
230
1.0
  0
CIRCLE
  5
A09
100
AcDbEntity
  8
0
 62
     7
100
AcDbCircle
 10
3459.464844
 20
1400.464478
 30
0.0
 40
58.500005
210
0.0
220
0.0
230
1.0
  0
CIRCLE
  5
A0A
100
AcDbEntity
  8
0
 62
     7
100
AcDbCircle
 10
3490.930908
 20
1368.998291
 30
0.0
 40
2.25
210
0.0
220
0.0
230
1.0
  0
CIRCLE
  5
A0B
100
AcDbEntity
  8
0
 62
     7
100
AcDbCircle
 10
3490.930908
 20
1368.998291
 30
0.0
 40
4.75
210
0.0
220
0.0
230
1.0
  0
CIRCLE
  5
A0C
100
AcDbEntity
  8
0
 62
     7
100
AcDbCircle
 10
3490.930908
 20
1431.930664
 30
0.0
 40
2.25
210
0.0
220
0.0
230
1.0
  0
CIRCLE
  5
A0D
100
AcDbEntity
  8
0
 62
     7
100
AcDbCircle
 10
3490.930908
 20
1431.930664
 30
0.0
 40
4.75
210
0.0
220
0.0
230
1.0
  0
CIRCLE
  5
A0E
100
AcDbEntity
  8
0
 62
     7
100
AcDbCircle
 10
3427.998291
 20
1431.930664
 30
0.0
 40
2.25
210
0.0
220
0.0
230
1.0
  0
CIRCLE
  5
A0F
100
AcDbEntity
  8
0
 62
     7
100
AcDbCircle
 10
3427.998291
 20
1431.930664
 30
0.0
 40
4.75
210
0.0
220
0.0
230
1.0
  0
CIRCLE
  5
A10
100
AcDbEntity
  8
0
 62
     7
100
AcDbCircle
 10
3427.998291
 20
1368.998291
 30
0.0
 40
2.25
210
0.0
220
0.0
230
1.0
  0
CIRCLE
  5
A11
100
AcDbEntity
  8
0
 62
     7
100
AcDbCircle
 10
3427.998291
 20
1368.998291
 30
0.0
 40
4.75
210
0.0
220
0.0
230
1.0
  0
CIRCLE
  5
A12
100
AcDbEntity
  8
0
 62
     7
100
AcDbCircle
 10
2288.695557
 20
1168.464355
 30
0.0
 40
63.500005
210
0.0
220
0.0
230
1.0
  0
CIRCLE
  5
A13
100
AcDbEntity
  8
0
 62
     7
100
AcDbCircle
 10
2288.695557
 20
1168.464355
 30
0.0
 40
58.500005
210
0.0
220
0.0
230
1.0
  0
CIRCLE
  5
A14
100
AcDbEntity
  8
0
 62
     7
100
AcDbCircle
 10
2320.161865
 20
1136.998047
 30
0.0
 40
2.25
210
0.0
220
0.0
230
1.0
  0
CIRCLE
  5
A15
100
AcDbEntity
  8
0
 62
     7
100
AcDbCircle
 10
2320.161865
 20
1136.998047
 30
0.0
 40
4.75
210
0.0
220
0.0
230
1.0
  0
CIRCLE
  5
A16
100
AcDbEntity
  8
0
 62
     7
100
AcDbCircle
 10
2320.161865
 20
1199.930664
 30
0.0
 40
2.25
210
0.0
220
0.0
230
1.0
  0
CIRCLE
  5
A17
100
AcDbEntity
  8
0
 62
     7
100
AcDbCircle
 10
2320.161865
 20
1199.930664
 30
0.0
 40
4.75
210
0.0
220
0.0
230
1.0
  0
CIRCLE
  5
A18
100
AcDbEntity
  8
0
 62
     7
100
AcDbCircle
 10
2257.229492
 20
1199.930664
 30
0.0
 40
2.25
210
0.0
220
0.0
230
1.0
  0
CIRCLE
  5
A19
100
AcDbEntity
  8
0
 62
     7
100
AcDbCircle
 10
2257.229492
 20
1199.930664
 30
0.0
 40
4.75
210
0.0
220
0.0
230
1.0
  0
CIRCLE
  5
A1A
100
AcDbEntity
  8
0
 62
     7
100
AcDbCircle
 10
2257.229492
 20
1136.998047
 30
0.0
 40
2.25
210
0.0
220
0.0
230
1.0
  0
CIRCLE
  5
A1B
100
AcDbEntity
  8
0
 62
     7
100
AcDbCircle
 10
2257.229492
 20
1136.998047
 30
0.0
 40
4.75
210
0.0
220
0.0
230
1.0
  0
CIRCLE
  5
A1C
100
AcDbEntity
  8
0
 62
     7
100
AcDbCircle
 10
1927.344604
 20
1746.464355
 30
0.0
 40
63.500005
210
0.0
220
0.0
230
1.0
  0
CIRCLE
  5
A1D
100
AcDbEntity
  8
0
 62
     7
100
AcDbCircle
 10
1927.344604
 20
1746.464355
 30
0.0
 40
58.500005
210
0.0
220
0.0
230
1.0
  0
CIRCLE
  5
A1E
100
AcDbEntity
  8
0
 62
     7
100
AcDbCircle
 10
1958.810791
 20
1714.998291
 30
0.0
 40
2.25
210
0.0
220
0.0
230
1.0
  0
CIRCLE
  5
A1F
100
AcDbEntity
  8
0
 62
     7
100
AcDbCircle
 10
1958.810791
 20
1714.998291
 30
0.0
 40
4.75
210
0.0
220
0.0
230
1.0
  0
CIRCLE
  5
A20
100
AcDbEntity
  8
0
 62
     7
100
AcDbCircle
 10
1958.810791
 20
1777.930786
 30
0.0
 40
2.25
210
0.0
220
0.0
230
1.0
  0
CIRCLE
  5
A21
100
AcDbEntity
  8
0
 62
     7
100
AcDbCircle
 10
1958.810791
 20
1777.930786
 30
0.0
 40
4.75
210
0.0
220
0.0
230
1.0
  0
CIRCLE
  5
A22
100
AcDbEntity
  8
0
 62
     7
100
AcDbCircle
 10
1895.878174
 20
1777.930786
 30
0.0
 40
2.25
210
0.0
220
0.0
230
1.0
  0
CIRCLE
  5
A23
100
AcDbEntity
  8
0
 62
     7
100
AcDbCircle
 10
1895.878174
 20
1777.930786
 30
0.0
 40
4.75
210
0.0
220
0.0
230
1.0
  0
CIRCLE
  5
A24
100
AcDbEntity
  8
0
 62
     7
100
AcDbCircle
 10
1895.878174
 20
1714.998291
 30
0.0
 40
2.25
210
0.0
220
0.0
230
1.0
  0
CIRCLE
  5
A25
100
AcDbEntity
  8
0
 62
     7
100
AcDbCircle
 10
1895.878174
 20
1714.998291
 30
0.0
 40
4.75
210
0.0
220
0.0
230
1.0
  0
CIRCLE
  5
A26
100
AcDbEntity
  8
0
 62
     7
100
AcDbCircle
 10
2410.964355
 20
1746.464355
 30
0.0
 40
63.500005
210
0.0
220
0.0
230
1.0
  0
CIRCLE
  5
A27
100
AcDbEntity
  8
0
 62
     7
100
AcDbCircle
 10
2410.964355
 20
1746.464355
 30
0.0
 40
58.500005
210
0.0
220
0.0
230
1.0
  0
CIRCLE
  5
A28
100
AcDbEntity
  8
0
 62
     7
100
AcDbCircle
 10
2442.430664
 20
1714.998291
 30
0.0
 40
2.25
210
0.0
220
0.0
230
1.0
  0
CIRCLE
  5
A29
100
AcDbEntity
  8
0
 62
     7
100
AcDbCircle
 10
2442.430664
 20
1714.998291
 30
0.0
 40
4.75
210
0.0
220
0.0
230
1.0
  0
CIRCLE
  5
A2A
100
AcDbEntity
  8
0
 62
     7
100
AcDbCircle
 10
2442.430664
 20
1777.930786
 30
0.0
 40
2.25
210
0.0
220
0.0
230
1.0
  0
CIRCLE
  5
A2B
100
AcDbEntity
  8
0
 62
     7
100
AcDbCircle
 10
2442.430664
 20
1777.930786
 30
0.0
 40
4.75
210
0.0
220
0.0
230
1.0
  0
CIRCLE
  5
A2C
100
AcDbEntity
  8
0
 62
     7
100
AcDbCircle
 10
2379.498291
 20
1777.930786
 30
0.0
 40
2.25
210
0.0
220
0.0
230
1.0
  0
CIRCLE
  5
A2D
100
AcDbEntity
  8
0
 62
     7
100
AcDbCircle
 10
2379.498291
 20
1777.930786
 30
0.0
 40
4.75
210
0.0
220
0.0
230
1.0
  0
CIRCLE
  5
A2E
100
AcDbEntity
  8
0
 62
     7
100
AcDbCircle
 10
2379.498291
 20
1714.998291
 30
0.0
 40
2.25
210
0.0
220
0.0
230
1.0
  0
CIRCLE
  5
A2F
100
AcDbEntity
  8
0
 62
     7
100
AcDbCircle
 10
2379.498291
 20
1714.998291
 30
0.0
 40
4.75
210
0.0
220
0.0
230
1.0
  0
CIRCLE
  5
A30
100
AcDbEntity
  8
0
 62
     7
100
AcDbCircle
 10
3020.9646
 20
1168.464355
 30
0.0
 40
63.500005
210
0.0
220
0.0
230
1.0
  0
CIRCLE
  5
A31
100
AcDbEntity
  8
0
 62
     7
100
AcDbCircle
 10
3020.9646
 20
1168.464355
 30
0.0
 40
58.500005
210
0.0
220
0.0
230
1.0
  0
CIRCLE
  5
A32
100
AcDbEntity
  8
0
 62
     7
100
AcDbCircle
 10
3052.430664
 20
1136.998047
 30
0.0
 40
2.25
210
0.0
220
0.0
230
1.0
  0
CIRCLE
  5
A33
100
AcDbEntity
  8
0
 62
     7
100
AcDbCircle
 10
3052.430664
 20
1136.998047
 30
0.0
 40
4.75
210
0.0
220
0.0
230
1.0
  0
CIRCLE
  5
A34
100
AcDbEntity
  8
0
 62
     7
100
AcDbCircle
 10
3052.430664
 20
1199.930664
 30
0.0
 40
2.25
210
0.0
220
0.0
230
1.0
  0
CIRCLE
  5
A35
100
AcDbEntity
  8
0
 62
     7
100
AcDbCircle
 10
3052.430664
 20
1199.930664
 30
0.0
 40
4.75
210
0.0
220
0.0
230
1.0
  0
CIRCLE
  5
A36
100
AcDbEntity
  8
0
 62
     7
100
AcDbCircle
 10
2989.498291
 20
1199.930664
 30
0.0
 40
2.25
210
0.0
220
0.0
230
1.0
  0
CIRCLE
  5
A37
100
AcDbEntity
  8
0
 62
     7
100
AcDbCircle
 10
2989.498291
 20
1199.930664
 30
0.0
 40
4.75
210
0.0
220
0.0
230
1.0
  0
CIRCLE
  5
A38
100
AcDbEntity
  8
0
 62
     7
100
AcDbCircle
 10
2989.498291
 20
1136.998047
 30
0.0
 40
2.25
210
0.0
220
0.0
230
1.0
  0
CIRCLE
  5
A39
100
AcDbEntity
  8
0
 62
     7
100
AcDbCircle
 10
2989.498291
 20
1136.998047
 30
0.0
 40
4.75
210
0.0
220
0.0
230
1.0
  0
CIRCLE
  5
A3A
100
AcDbEntity
  8
0
 62
     7
100
AcDbCircle
 10
3020.9646
 20
1746.464355
 30
0.0
 40
63.500005
210
0.0
220
0.0
230
1.0
  0
CIRCLE
  5
A3B
100
AcDbEntity
  8
0
 62
     7
100
AcDbCircle
 10
3020.9646
 20
1746.464355
 30
0.0
 40
58.500005
210
0.0
220
0.0
230
1.0
  0
CIRCLE
  5
A3C
100
AcDbEntity
  8
0
 62
     7
100
AcDbCircle
 10
3052.430664
 20
1714.998291
 30
0.0
 40
2.25
210
0.0
220
0.0
230
1.0
  0
CIRCLE
  5
A3D
100
AcDbEntity
  8
0
 62
     7
100
AcDbCircle
 10
3052.430664
 20
1714.998291
 30
0.0
 40
4.75
210
0.0
220
0.0
230
1.0
  0
CIRCLE
  5
A3E
100
AcDbEntity
  8
0
 62
     7
100
AcDbCircle
 10
3052.430664
 20
1777.930786
 30
0.0
 40
2.25
210
0.0
220
0.0
230
1.0
  0
CIRCLE
  5
A3F
100
AcDbEntity
  8
0
 62
     7
100
AcDbCircle
 10
3052.430664
 20
1777.930786
 30
0.0
 40
4.75
210
0.0
220
0.0
230
1.0
  0
CIRCLE
  5
A40
100
AcDbEntity
  8
0
 62
     7
100
AcDbCircle
 10
2989.498291
 20
1777.930786
 30
0.0
 40
2.25
210
0.0
220
0.0
230
1.0
  0
CIRCLE
  5
A41
100
AcDbEntity
  8
0
 62
     7
100
AcDbCircle
 10
2989.498291
 20
1777.930786
 30
0.0
 40
4.75
210
0.0
220
0.0
230
1.0
  0
CIRCLE
  5
A42
100
AcDbEntity
  8
0
 62
     7
100
AcDbCircle
 10
2989.498291
 20
1714.998291
 30
0.0
 40
2.25
210
0.0
220
0.0
230
1.0
  0
CIRCLE
  5
A43
100
AcDbEntity
  8
0
 62
     7
100
AcDbCircle
 10
2989.498291
 20
1714.998291
 30
0.0
 40
4.75
210
0.0
220
0.0
230
1.0
  0
CIRCLE
  5
A44
100
AcDbEntity
  8
0
 62
     7
100
AcDbCircle
 10
3630.9646
 20
1746.464355
 30
0.0
 40
63.500005
210
0.0
220
0.0
230
1.0
  0
CIRCLE
  5
A45
100
AcDbEntity
  8
0
 62
     7
100
AcDbCircle
 10
3630.9646
 20
1746.464355
 30
0.0
 40
58.500005
210
0.0
220
0.0
230
1.0
  0
CIRCLE
  5
A46
100
AcDbEntity
  8
0
 62
     7
100
AcDbCircle
 10
3662.430664
 20
1714.998291
 30
0.0
 40
2.25
210
0.0
220
0.0
230
1.0
  0
CIRCLE
  5
A47
100
AcDbEntity
  8
0
 62
     7
100
AcDbCircle
 10
3662.430664
 20
1714.998291
 30
0.0
 40
4.75
210
0.0
220
0.0
230
1.0
  0
CIRCLE
  5
A48
100
AcDbEntity
  8
0
 62
     7
100
AcDbCircle
 10
3662.430664
 20
1777.930786
 30
0.0
 40
2.25
210
0.0
220
0.0
230
1.0
  0
CIRCLE
  5
A49
100
AcDbEntity
  8
0
 62
     7
100
AcDbCircle
 10
3662.430664
 20
1777.930786
 30
0.0
 40
4.75
210
0.0
220
0.0
230
1.0
  0
CIRCLE
  5
A4A
100
AcDbEntity
  8
0
 62
     7
100
AcDbCircle
 10
3599.498535
 20
1777.930786
 30
0.0
 40
2.25
210
0.0
220
0.0
230
1.0
  0
CIRCLE
  5
A4B
100
AcDbEntity
  8
0
 62
     7
100
AcDbCircle
 10
3599.498535
 20
1777.930786
 30
0.0
 40
4.75
210
0.0
220
0.0
230
1.0
  0
CIRCLE
  5
A4C
100
AcDbEntity
  8
0
 62
     7
100
AcDbCircle
 10
3599.498535
 20
1714.998291
 30
0.0
 40
2.25
210
0.0
220
0.0
230
1.0
  0
CIRCLE
  5
A4D
100
AcDbEntity
  8
0
 62
     7
100
AcDbCircle
 10
3599.498535
 20
1714.998291
 30
0.0
 40
4.75
210
0.0
220
0.0
230
1.0
  0
CIRCLE
  5
A4E
100
AcDbEntity
  8
0
 62
     7
100
AcDbCircle
 10
4114.584961
 20
1746.464355
 30
0.0
 40
63.500005
210
0.0
220
0.0
230
1.0
  0
CIRCLE
  5
A4F
100
AcDbEntity
  8
0
 62
     7
100
AcDbCircle
 10
4114.584961
 20
1746.464355
 30
0.0
 40
58.500005
210
0.0
220
0.0
230
1.0
  0
CIRCLE
  5
A50
100
AcDbEntity
  8
0
 62
     7
100
AcDbCircle
 10
4146.050781
 20
1714.998291
 30
0.0
 40
2.25
210
0.0
220
0.0
230
1.0
  0
CIRCLE
  5
A51
100
AcDbEntity
  8
0
 62
     7
100
AcDbCircle
 10
4146.050781
 20
1714.998291
 30
0.0
 40
4.75
210
0.0
220
0.0
230
1.0
  0
CIRCLE
  5
A52
100
AcDbEntity
  8
0
 62
     7
100
AcDbCircle
 10
4146.050781
 20
1777.930786
 30
0.0
 40
2.25
210
0.0
220
0.0
230
1.0
  0
CIRCLE
  5
A53
100
AcDbEntity
  8
0
 62
     7
100
AcDbCircle
 10
4146.050781
 20
1777.930786
 30
0.0
 40
4.75
210
0.0
220
0.0
230
1.0
  0
CIRCLE
  5
A54
100
AcDbEntity
  8
0
 62
     7
100
AcDbCircle
 10
4083.118408
 20
1777.930786
 30
0.0
 40
2.25
210
0.0
220
0.0
230
1.0
  0
CIRCLE
  5
A55
100
AcDbEntity
  8
0
 62
     7
100
AcDbCircle
 10
4083.118408
 20
1777.930786
 30
0.0
 40
4.75
210
0.0
220
0.0
230
1.0
  0
CIRCLE
  5
A56
100
AcDbEntity
  8
0
 62
     7
100
AcDbCircle
 10
4083.118408
 20
1714.998291
 30
0.0
 40
2.25
210
0.0
220
0.0
230
1.0
  0
CIRCLE
  5
A57
100
AcDbEntity
  8
0
 62
     7
100
AcDbCircle
 10
4083.118408
 20
1714.998291
 30
0.0
 40
4.75
210
0.0
220
0.0
230
1.0
  0
CIRCLE
  5
A58
100
AcDbEntity
  8
0
 62
     7
100
AcDbCircle
 10
3753.233643
 20
1168.464355
 30
0.0
 40
63.500005
210
0.0
220
0.0
230
1.0
  0
CIRCLE
  5
A59
100
AcDbEntity
  8
0
 62
     7
100
AcDbCircle
 10
3753.233643
 20
1168.464355
 30
0.0
 40
58.500005
210
0.0
220
0.0
230
1.0
  0
CIRCLE
  5
A5A
100
AcDbEntity
  8
0
 62
     7
100
AcDbCircle
 10
3784.699707
 20
1136.998047
 30
0.0
 40
2.25
210
0.0
220
0.0
230
1.0
  0
CIRCLE
  5
A5B
100
AcDbEntity
  8
0
 62
     7
100
AcDbCircle
 10
3784.699707
 20
1136.998047
 30
0.0
 40
4.75
210
0.0
220
0.0
230
1.0
  0
CIRCLE
  5
A5C
100
AcDbEntity
  8
0
 62
     7
100
AcDbCircle
 10
3784.699707
 20
1199.930664
 30
0.0
 40
2.25
210
0.0
220
0.0
230
1.0
  0
CIRCLE
  5
A5D
100
AcDbEntity
  8
0
 62
     7
100
AcDbCircle
 10
3784.699707
 20
1199.930664
 30
0.0
 40
4.75
210
0.0
220
0.0
230
1.0
  0
CIRCLE
  5
A5E
100
AcDbEntity
  8
0
 62
     7
100
AcDbCircle
 10
3721.767334
 20
1199.930664
 30
0.0
 40
2.25
210
0.0
220
0.0
230
1.0
  0
CIRCLE
  5
A5F
100
AcDbEntity
  8
0
 62
     7
100
AcDbCircle
 10
3721.767334
 20
1199.930664
 30
0.0
 40
4.75
210
0.0
220
0.0
230
1.0
  0
CIRCLE
  5
A60
100
AcDbEntity
  8
0
 62
     7
100
AcDbCircle
 10
3721.767334
 20
1136.998047
 30
0.0
 40
2.25
210
0.0
220
0.0
230
1.0
  0
CIRCLE
  5
A61
100
AcDbEntity
  8
0
 62
     7
100
AcDbCircle
 10
3721.767334
 20
1136.998047
 30
0.0
 40
4.75
210
0.0
220
0.0
230
1.0
  0
LINE
  5
A62
100
AcDbEntity
  8
0
 62
     7
 48
0.007501
100
AcDbLine
 10
2983.9646
 20
1094.664307
 30
0.0
 11
2983.9646
 21
1094.964355
 31
0.0
210
0.0
220
0.0
230
1.0
  0
LINE
  5
A63
100
AcDbEntity
  8
0
 62
     7
100
AcDbLine
 10
2983.9646
 20
1094.664307
 30
0.0
 11
3057.964355
 21
1094.664307
 31
0.0
210
0.0
220
0.0
230
1.0
  0
LINE
  5
A64
100
AcDbEntity
  8
0
 62
     7
 48
0.007501
100
AcDbLine
 10
3057.964355
 20
1094.664307
 30
0.0
 11
3057.964355
 21
1094.964355
 31
0.0
210
0.0
220
0.0
230
1.0
  0
POLYLINE
  5
A65
100
AcDbEntity
  8
0
 62
     7
100
AcDb2dPolyline
 66
     1
 10
0.0
 20
0.0
 30
0.0
 71
    10
  0
VERTEX
  5
A66
100
AcDbEntity
  8
0
100
AcDbVertex
100
AcDb2dVertex
 10
722.184143
 20
3327.347656
 30
0.0
  0
VERTEX
  5
A67
100
AcDbEntity
  8
0
100
AcDbVertex
100
AcDb2dVertex
 10
715.517395
 20
3332.060791
 30
0.0
  0
VERTEX
  5
A68
100
AcDbEntity
  8
0
100
AcDbVertex
100
AcDb2dVertex
 10
715.517395
 20
3346.200928
 30
0.0
  0
VERTEX
  5
A69
100
AcDbEntity
  8
0
100
AcDbVertex
100
AcDb2dVertex
 10
722.184143
 20
3350.914307
 30
0.0
  0
VERTEX
  5
A6A
100
AcDbEntity
  8
0
100
AcDbVertex
100
AcDb2dVertex
 10
732.184143
 20
3350.914307
 30
0.0
  0
VERTEX
  5
A6B
100
AcDbEntity
  8
0
100
AcDbVertex
100
AcDb2dVertex
 10
738.850769
 20
3346.200928
 30
0.0
  0
VERTEX
  5
A6C
100
AcDbEntity
  8
0
100
AcDbVertex
100
AcDb2dVertex
 10
738.850769
 20
3336.774414
 30
0.0
  0
VERTEX
  5
A6D
100
AcDbEntity
  8
0
100
AcDbVertex
100
AcDb2dVertex
 10
752.184143
 20
3327.347656
 30
0.0
  0
VERTEX
  5
A6E
100
AcDbEntity
  8
0
100
AcDbVertex
100
AcDb2dVertex
 10
758.850769
 20
3327.347656
 30
0.0
  0
VERTEX
  5
A6F
100
AcDbEntity
  8
0
100
AcDbVertex
100
AcDb2dVertex
 10
758.850769
 20
3353.27124
 30
0.0
  0
SEQEND
  5
A70
100
AcDbEntity
  8
0
  0
POLYLINE
  5
A71
100
AcDbEntity
  8
0
 62
     7
100
AcDb2dPolyline
 66
     1
 10
0.0
 20
0.0
 30
0.0
 71
     7
  0
VERTEX
  5
A72
100
AcDbEntity
  8
0
100
AcDbVertex
100
AcDb2dVertex
 10
752.184143
 20
3363.27124
 30
0.0
  0
VERTEX
  5
A73
100
AcDbEntity
  8
0
100
AcDbVertex
100
AcDb2dVertex
 10
758.850769
 20
3367.984375
 30
0.0
  0
VERTEX
  5
A74
100
AcDbEntity
  8
0
100
AcDbVertex
100
AcDb2dVertex
 10
758.850769
 20
3384.480957
 30
0.0
  0
VERTEX
  5
A75
100
AcDbEntity
  8
0
100
AcDbVertex
100
AcDb2dVertex
 10
752.184143
 20
3389.194336
 30
0.0
  0
VERTEX
  5
A76
100
AcDbEntity
  8
0
100
AcDbVertex
100
AcDb2dVertex
 10
742.184143
 20
3389.194336
 30
0.0
  0
VERTEX
  5
A77
100
AcDbEntity
  8
0
100
AcDbVertex
100
AcDb2dVertex
 10
735.517395
 20
3384.480957
 30
0.0
  0
VERTEX
  5
A78
100
AcDbEntity
  8
0
100
AcDbVertex
100
AcDb2dVertex
 10
735.517395
 20
3372.697754
 30
0.0
  0
SEQEND
  5
A79
100
AcDbEntity
  8
0
  0
POLYLINE
  5
A7A
100
AcDbEntity
  8
0
 62
     7
100
AcDb2dPolyline
 66
     1
 10
0.0
 20
0.0
 30
0.0
 71
     6
  0
VERTEX
  5
A7B
100
AcDbEntity
  8
0
100
AcDbVertex
100
AcDb2dVertex
 10
735.517395
 20
3384.480957
 30
0.0
  0
VERTEX
  5
A7C
100
AcDbEntity
  8
0
100
AcDbVertex
100
AcDb2dVertex
 10
728.850769
 20
3389.194336
 30
0.0
  0
VERTEX
  5
A7D
100
AcDbEntity
  8
0
100
AcDbVertex
100
AcDb2dVertex
 10
722.184143
 20
3389.194336
 30
0.0
  0
VERTEX
  5
A7E
100
AcDbEntity
  8
0
100
AcDbVertex
100
AcDb2dVertex
 10
715.517395
 20
3384.480957
 30
0.0
  0
VERTEX
  5
A7F
100
AcDbEntity
  8
0
100
AcDbVertex
100
AcDb2dVertex
 10
715.517395
 20
3367.984375
 30
0.0
  0
VERTEX
  5
A80
100
AcDbEntity
  8
0
100
AcDbVertex
100
AcDb2dVertex
 10
722.184143
 20
3363.27124
 30
0.0
  0
SEQEND
  5
A81
100
AcDbEntity
  8
0
  0
POLYLINE
  5
A82
100
AcDbEntity
  8
0
 62
     7
100
AcDb2dPolyline
 66
     1
 10
0.0
 20
0.0
 30
0.0
 71
    12
  0
VERTEX
  5
A83
100
AcDbEntity
  8
0
100
AcDbVertex
100
AcDb2dVertex
 10
742.184143
 20
3399.194336
 30
0.0
  0
VERTEX
  5
A84
100
AcDbEntity
  8
0
100
AcDbVertex
100
AcDb2dVertex
 10
732.184143
 20
3406.264404
 30
0.0
  0
VERTEX
  5
A85
100
AcDbEntity
  8
0
100
AcDbVertex
100
AcDb2dVertex
 10
732.184143
 20
3418.047852
 30
0.0
  0
VERTEX
  5
A86
100
AcDbEntity
  8
0
100
AcDbVertex
100
AcDb2dVertex
 10
742.184143
 20
3425.11792
 30
0.0
  0
VERTEX
  5
A87
100
AcDbEntity
  8
0
100
AcDbVertex
100
AcDb2dVertex
 10
748.850769
 20
3425.11792
 30
0.0
  0
VERTEX
  5
A88
100
AcDbEntity
  8
0
100
AcDbVertex
100
AcDb2dVertex
 10
758.850769
 20
3418.047852
 30
0.0
  0
VERTEX
  5
A89
100
AcDbEntity
  8
0
100
AcDbVertex
100
AcDb2dVertex
 10
758.850769
 20
3406.264404
 30
0.0
  0
VERTEX
  5
A8A
100
AcDbEntity
  8
0
100
AcDbVertex
100
AcDb2dVertex
 10
748.850769
 20
3399.194336
 30
0.0
  0
VERTEX
  5
A8B
100
AcDbEntity
  8
0
100
AcDbVertex
100
AcDb2dVertex
 10
725.517395
 20
3399.194336
 30
0.0
  0
VERTEX
  5
A8C
100
AcDbEntity
  8
0
100
AcDbVertex
100
AcDb2dVertex
 10
715.517395
 20
3406.264404
 30
0.0
  0
VERTEX
  5
A8D
100
AcDbEntity
  8
0
100
AcDbVertex
100
AcDb2dVertex
 10
715.517395
 20
3420.404297
 30
0.0
  0
VERTEX
  5
A8E
100
AcDbEntity
  8
0
100
AcDbVertex
100
AcDb2dVertex
 10
722.184143
 20
3425.11792
 30
0.0
  0
SEQEND
  5
A8F
100
AcDbEntity
  8
0
  0
LINE
  5
A90
100
AcDbEntity
  8
0
 62
     7
100
AcDbLine
 10
884.14209
 20
3258.232666
 30
0.0
 11
752.184082
 21
3258.232666
 31
0.0
210
0.0
220
0.0
230
1.0
  0
LINE
  5
A91
100
AcDbEntity
  8
0
 62
     7
100
AcDbLine
 10
884.14209
 20
3494.23291
 30
0.0
 11
752.184082
 21
3494.23291
 31
0.0
210
0.0
220
0.0
230
1.0
  0
POLYLINE
  5
A92
100
AcDbEntity
  8
0
 62
     7
100
AcDb2dPolyline
 66
     1
 10
0.0
 20
0.0
 30
0.0
 71
     3
  0
VERTEX
  5
A93
100
AcDbEntity
  8
0
100
AcDbVertex
100
AcDb2dVertex
 10
782.536865
 20
3455.595703
 30
0.0
  0
VERTEX
  5
A94
100
AcDbEntity
  8
0
100
AcDbVertex
100
AcDb2dVertex
 10
772.184082
 20
3494.23291
 30
0.0
  0
VERTEX
  5
A95
100
AcDbEntity
  8
0
100
AcDbVertex
100
AcDb2dVertex
 10
761.83136
 20
3455.595703
 30
0.0
  0
SEQEND
  5
A96
100
AcDbEntity
  8
0
  0
POLYLINE
  5
A97
100
AcDbEntity
  8
0
 62
     7
100
AcDb2dPolyline
 66
     1
 10
0.0
 20
0.0
 30
0.0
 71
     3
  0
VERTEX
  5
A98
100
AcDbEntity
  8
0
100
AcDbVertex
100
AcDb2dVertex
 10
761.83136
 20
3296.869873
 30
0.0
  0
VERTEX
  5
A99
100
AcDbEntity
  8
0
100
AcDbVertex
100
AcDb2dVertex
 10
772.184082
 20
3258.232666
 30
0.0
  0
VERTEX
  5
A9A
100
AcDbEntity
  8
0
100
AcDbVertex
100
AcDb2dVertex
 10
782.536865
 20
3296.869873
 30
0.0
  0
SEQEND
  5
A9B
100
AcDbEntity
  8
0
  0
LINE
  5
A9C
100
AcDbEntity
  8
0
 62
     7
100
AcDbLine
 10
772.184082
 20
3258.232666
 30
0.0
 11
772.184082
 21
3494.23291
 31
0.0
210
0.0
220
0.0
230
1.0
  0
POLYLINE
  5
A9D
100
AcDbEntity
  8
0
 62
     7
100
AcDb2dPolyline
 66
     1
 10
0.0
 20
0.0
 30
0.0
 71
    10
  0
VERTEX
  5
A9E
100
AcDbEntity
  8
0
100
AcDbVertex
100
AcDb2dVertex
 10
722.184143
 20
3091.347656
 30
0.0
  0
VERTEX
  5
A9F
100
AcDbEntity
  8
0
100
AcDbVertex
100
AcDb2dVertex
 10
715.517395
 20
3096.061035
 30
0.0
  0
VERTEX
  5
AA0
100
AcDbEntity
  8
0
100
AcDbVertex
100
AcDb2dVertex
 10
715.517395
 20
3110.201172
 30
0.0
  0
VERTEX
  5
AA1
100
AcDbEntity
  8
0
100
AcDbVertex
100
AcDb2dVertex
 10
722.184143
 20
3114.914307
 30
0.0
  0
VERTEX
  5
AA2
100
AcDbEntity
  8
0
100
AcDbVertex
100
AcDb2dVertex
 10
732.184143
 20
3114.914307
 30
0.0
  0
VERTEX
  5
AA3
100
AcDbEntity
  8
0
100
AcDbVertex
100
AcDb2dVertex
 10
738.850769
 20
3110.201172
 30
0.0
  0
VERTEX
  5
AA4
100
AcDbEntity
  8
0
100
AcDbVertex
100
AcDb2dVertex
 10
738.850769
 20
3100.77417
 30
0.0
  0
VERTEX
  5
AA5
100
AcDbEntity
  8
0
100
AcDbVertex
100
AcDb2dVertex
 10
752.184143
 20
3091.347656
 30
0.0
  0
VERTEX
  5
AA6
100
AcDbEntity
  8
0
100
AcDbVertex
100
AcDb2dVertex
 10
758.850769
 20
3091.347656
 30
0.0
  0
VERTEX
  5
AA7
100
AcDbEntity
  8
0
100
AcDbVertex
100
AcDb2dVertex
 10
758.850769
 20
3117.270996
 30
0.0
  0
SEQEND
  5
AA8
100
AcDbEntity
  8
0
  0
POLYLINE
  5
AA9
100
AcDbEntity
  8
0
 62
     7
100
AcDb2dPolyline
 66
     1
 10
0.0
 20
0.0
 30
0.0
 71
     7
  0
VERTEX
  5
AAA
100
AcDbEntity
  8
0
100
AcDbVertex
100
AcDb2dVertex
 10
752.184143
 20
3127.270996
 30
0.0
  0
VERTEX
  5
AAB
100
AcDbEntity
  8
0
100
AcDbVertex
100
AcDb2dVertex
 10
758.850769
 20
3131.984131
 30
0.0
  0
VERTEX
  5
AAC
100
AcDbEntity
  8
0
100
AcDbVertex
100
AcDb2dVertex
 10
758.850769
 20
3148.481201
 30
0.0
  0
VERTEX
  5
AAD
100
AcDbEntity
  8
0
100
AcDbVertex
100
AcDb2dVertex
 10
752.184143
 20
3153.194336
 30
0.0
  0
VERTEX
  5
AAE
100
AcDbEntity
  8
0
100
AcDbVertex
100
AcDb2dVertex
 10
742.184143
 20
3153.194336
 30
0.0
  0
VERTEX
  5
AAF
100
AcDbEntity
  8
0
100
AcDbVertex
100
AcDb2dVertex
 10
735.517395
 20
3148.481201
 30
0.0
  0
VERTEX
  5
AB0
100
AcDbEntity
  8
0
100
AcDbVertex
100
AcDb2dVertex
 10
735.517395
 20
3136.697754
 30
0.0
  0
SEQEND
  5
AB1
100
AcDbEntity
  8
0
  0
POLYLINE
  5
AB2
100
AcDbEntity
  8
0
 62
     7
100
AcDb2dPolyline
 66
     1
 10
0.0
 20
0.0
 30
0.0
 71
     6
  0
VERTEX
  5
AB3
100
AcDbEntity
  8
0
100
AcDbVertex
100
AcDb2dVertex
 10
735.517395
 20
3148.481201
 30
0.0
  0
VERTEX
  5
AB4
100
AcDbEntity
  8
0
100
AcDbVertex
100
AcDb2dVertex
 10
728.850769
 20
3153.194336
 30
0.0
  0
VERTEX
  5
AB5
100
AcDbEntity
  8
0
100
AcDbVertex
100
AcDb2dVertex
 10
722.184143
 20
3153.194336
 30
0.0
  0
VERTEX
  5
AB6
100
AcDbEntity
  8
0
100
AcDbVertex
100
AcDb2dVertex
 10
715.517395
 20
3148.481201
 30
0.0
  0
VERTEX
  5
AB7
100
AcDbEntity
  8
0
100
AcDbVertex
100
AcDb2dVertex
 10
715.517395
 20
3131.984131
 30
0.0
  0
VERTEX
  5
AB8
100
AcDbEntity
  8
0
100
AcDbVertex
100
AcDb2dVertex
 10
722.184143
 20
3127.270996
 30
0.0
  0
SEQEND
  5
AB9
100
AcDbEntity
  8
0
  0
POLYLINE
  5
ABA
100
AcDbEntity
  8
0
 62
     7
100
AcDb2dPolyline
 66
     1
 10
0.0
 20
0.0
 30
0.0
 71
    12
  0
VERTEX
  5
ABB
100
AcDbEntity
  8
0
100
AcDbVertex
100
AcDb2dVertex
 10
742.184143
 20
3163.194336
 30
0.0
  0
VERTEX
  5
ABC
100
AcDbEntity
  8
0
100
AcDbVertex
100
AcDb2dVertex
 10
732.184143
 20
3170.26416
 30
0.0
  0
VERTEX
  5
ABD
100
AcDbEntity
  8
0
100
AcDbVertex
100
AcDb2dVertex
 10
732.184143
 20
3182.047607
 30
0.0
  0
VERTEX
  5
ABE
100
AcDbEntity
  8
0
100
AcDbVertex
100
AcDb2dVertex
 10
742.184143
 20
3189.117676
 30
0.0
  0
VERTEX
  5
ABF
100
AcDbEntity
  8
0
100
AcDbVertex
100
AcDb2dVertex
 10
748.850769
 20
3189.117676
 30
0.0
  0
VERTEX
  5
AC0
100
AcDbEntity
  8
0
100
AcDbVertex
100
AcDb2dVertex
 10
758.850769
 20
3182.047607
 30
0.0
  0
VERTEX
  5
AC1
100
AcDbEntity
  8
0
100
AcDbVertex
100
AcDb2dVertex
 10
758.850769
 20
3170.26416
 30
0.0
  0
VERTEX
  5
AC2
100
AcDbEntity
  8
0
100
AcDbVertex
100
AcDb2dVertex
 10
748.850769
 20
3163.194336
 30
0.0
  0
VERTEX
  5
AC3
100
AcDbEntity
  8
0
100
AcDbVertex
100
AcDb2dVertex
 10
725.517395
 20
3163.194336
 30
0.0
  0
VERTEX
  5
AC4
100
AcDbEntity
  8
0
100
AcDbVertex
100
AcDb2dVertex
 10
715.517395
 20
3170.26416
 30
0.0
  0
VERTEX
  5
AC5
100
AcDbEntity
  8
0
100
AcDbVertex
100
AcDb2dVertex
 10
715.517395
 20
3184.404297
 30
0.0
  0
VERTEX
  5
AC6
100
AcDbEntity
  8
0
100
AcDbVertex
100
AcDb2dVertex
 10
722.184143
 20
3189.117676
 30
0.0
  0
SEQEND
  5
AC7
100
AcDbEntity
  8
0
  0
LINE
  5
AC8
100
AcDbEntity
  8
0
 62
     7
100
AcDbLine
 10
884.14209
 20
3022.232666
 30
0.0
 11
752.184082
 21
3022.232666
 31
0.0
210
0.0
220
0.0
230
1.0
  0
LINE
  5
AC9
100
AcDbEntity
  8
0
 62
     7
100
AcDbLine
 10
884.14209
 20
3258.232666
 30
0.0
 11
752.184082
 21
3258.232666
 31
0.0
210
0.0
220
0.0
230
1.0
  0
POLYLINE
  5
ACA
100
AcDbEntity
  8
0
 62
     7
100
AcDb2dPolyline
 66
     1
 10
0.0
 20
0.0
 30
0.0
 71
     3
  0
VERTEX
  5
ACB
100
AcDbEntity
  8
0
100
AcDbVertex
100
AcDb2dVertex
 10
761.83136
 20
3060.869629
 30
0.0
  0
VERTEX
  5
ACC
100
AcDbEntity
  8
0
100
AcDbVertex
100
AcDb2dVertex
 10
772.184082
 20
3022.232666
 30
0.0
  0
VERTEX
  5
ACD
100
AcDbEntity
  8
0
100
AcDbVertex
100
AcDb2dVertex
 10
782.536865
 20
3060.869629
 30
0.0
  0
SEQEND
  5
ACE
100
AcDbEntity
  8
0
  0
POLYLINE
  5
ACF
100
AcDbEntity
  8
0
 62
     7
100
AcDb2dPolyline
 66
     1
 10
0.0
 20
0.0
 30
0.0
 71
     3
  0
VERTEX
  5
AD0
100
AcDbEntity
  8
0
100
AcDbVertex
100
AcDb2dVertex
 10
782.536865
 20
3219.595703
 30
0.0
  0
VERTEX
  5
AD1
100
AcDbEntity
  8
0
100
AcDbVertex
100
AcDb2dVertex
 10
772.184082
 20
3258.232666
 30
0.0
  0
VERTEX
  5
AD2
100
AcDbEntity
  8
0
100
AcDbVertex
100
AcDb2dVertex
 10
761.83136
 20
3219.595703
 30
0.0
  0
SEQEND
  5
AD3
100
AcDbEntity
  8
0
  0
LINE
  5
AD4
100
AcDbEntity
  8
0
 62
     7
100
AcDbLine
 10
772.184082
 20
3022.232666
 30
0.0
 11
772.184082
 21
3258.232666
 31
0.0
210
0.0
220
0.0
230
1.0
  0
POLYLINE
  5
AD5
100
AcDbEntity
  8
0
 62
     7
100
AcDb2dPolyline
 66
     1
 10
0.0
 20
0.0
 30
0.0
 71
    10
  0
VERTEX
  5
AD6
100
AcDbEntity
  8
0
100
AcDbVertex
100
AcDb2dVertex
 10
722.184143
 20
2855.347656
 30
0.0
  0
VERTEX
  5
AD7
100
AcDbEntity
  8
0
100
AcDbVertex
100
AcDb2dVertex
 10
715.517395
 20
2860.061035
 30
0.0
  0
VERTEX
  5
AD8
100
AcDbEntity
  8
0
100
AcDbVertex
100
AcDb2dVertex
 10
715.517395
 20
2874.200928
 30
0.0
  0
VERTEX
  5
AD9
100
AcDbEntity
  8
0
100
AcDbVertex
100
AcDb2dVertex
 10
722.184143
 20
2878.914551
 30
0.0
  0
VERTEX
  5
ADA
100
AcDbEntity
  8
0
100
AcDbVertex
100
AcDb2dVertex
 10
732.184143
 20
2878.914551
 30
0.0
  0
VERTEX
  5
ADB
100
AcDbEntity
  8
0
100
AcDbVertex
100
AcDb2dVertex
 10
738.850769
 20
2874.200928
 30
0.0
  0
VERTEX
  5
ADC
100
AcDbEntity
  8
0
100
AcDbVertex
100
AcDb2dVertex
 10
738.850769
 20
2864.774414
 30
0.0
  0
VERTEX
  5
ADD
100
AcDbEntity
  8
0
100
AcDbVertex
100
AcDb2dVertex
 10
752.184143
 20
2855.347656
 30
0.0
  0
VERTEX
  5
ADE
100
AcDbEntity
  8
0
100
AcDbVertex
100
AcDb2dVertex
 10
758.850769
 20
2855.347656
 30
0.0
  0
VERTEX
  5
ADF
100
AcDbEntity
  8
0
100
AcDbVertex
100
AcDb2dVertex
 10
758.850769
 20
2881.270996
 30
0.0
  0
SEQEND
  5
AE0
100
AcDbEntity
  8
0
  0
POLYLINE
  5
AE1
100
AcDbEntity
  8
0
 62
     7
100
AcDb2dPolyline
 66
     1
 10
0.0
 20
0.0
 30
0.0
 71
     7
  0
VERTEX
  5
AE2
100
AcDbEntity
  8
0
100
AcDbVertex
100
AcDb2dVertex
 10
752.184143
 20
2891.270996
 30
0.0
  0
VERTEX
  5
AE3
100
AcDbEntity
  8
0
100
AcDbVertex
100
AcDb2dVertex
 10
758.850769
 20
2895.984131
 30
0.0
  0
VERTEX
  5
AE4
100
AcDbEntity
  8
0
100
AcDbVertex
100
AcDb2dVertex
 10
758.850769
 20
2912.480957
 30
0.0
  0
VERTEX
  5
AE5
100
AcDbEntity
  8
0
100
AcDbVertex
100
AcDb2dVertex
 10
752.184143
 20
2917.194092
 30
0.0
  0
VERTEX
  5
AE6
100
AcDbEntity
  8
0
100
AcDbVertex
100
AcDb2dVertex
 10
742.184143
 20
2917.194092
 30
0.0
  0
VERTEX
  5
AE7
100
AcDbEntity
  8
0
100
AcDbVertex
100
AcDb2dVertex
 10
735.517395
 20
2912.480957
 30
0.0
  0
VERTEX
  5
AE8
100
AcDbEntity
  8
0
100
AcDbVertex
100
AcDb2dVertex
 10
735.517395
 20
2900.69751
 30
0.0
  0
SEQEND
  5
AE9
100
AcDbEntity
  8
0
  0
POLYLINE
  5
AEA
100
AcDbEntity
  8
0
 62
     7
100
AcDb2dPolyline
 66
     1
 10
0.0
 20
0.0
 30
0.0
 71
     6
  0
VERTEX
  5
AEB
100
AcDbEntity
  8
0
100
AcDbVertex
100
AcDb2dVertex
 10
735.517395
 20
2912.480957
 30
0.0
  0
VERTEX
  5
AEC
100
AcDbEntity
  8
0
100
AcDbVertex
100
AcDb2dVertex
 10
728.850769
 20
2917.194092
 30
0.0
  0
VERTEX
  5
AED
100
AcDbEntity
  8
0
100
AcDbVertex
100
AcDb2dVertex
 10
722.184143
 20
2917.194092
 30
0.0
  0
VERTEX
  5
AEE
100
AcDbEntity
  8
0
100
AcDbVertex
100
AcDb2dVertex
 10
715.517395
 20
2912.480957
 30
0.0
  0
VERTEX
  5
AEF
100
AcDbEntity
  8
0
100
AcDbVertex
100
AcDb2dVertex
 10
715.517395
 20
2895.984131
 30
0.0
  0
VERTEX
  5
AF0
100
AcDbEntity
  8
0
100
AcDbVertex
100
AcDb2dVertex
 10
722.184143
 20
2891.270996
 30
0.0
  0
SEQEND
  5
AF1
100
AcDbEntity
  8
0
  0
POLYLINE
  5
AF2
100
AcDbEntity
  8
0
 62
     7
100
AcDb2dPolyline
 66
     1
 10
0.0
 20
0.0
 30
0.0
 71
    12
  0
VERTEX
  5
AF3
100
AcDbEntity
  8
0
100
AcDbVertex
100
AcDb2dVertex
 10
742.184143
 20
2927.194092
 30
0.0
  0
VERTEX
  5
AF4
100
AcDbEntity
  8
0
100
AcDbVertex
100
AcDb2dVertex
 10
732.184143
 20
2934.26416
 30
0.0
  0
VERTEX
  5
AF5
100
AcDbEntity
  8
0
100
AcDbVertex
100
AcDb2dVertex
 10
732.184143
 20
2946.047607
 30
0.0
  0
VERTEX
  5
AF6
100
AcDbEntity
  8
0
100
AcDbVertex
100
AcDb2dVertex
 10
742.184143
 20
2953.117676
 30
0.0
  0
VERTEX
  5
AF7
100
AcDbEntity
  8
0
100
AcDbVertex
100
AcDb2dVertex
 10
748.850769
 20
2953.117676
 30
0.0
  0
VERTEX
  5
AF8
100
AcDbEntity
  8
0
100
AcDbVertex
100
AcDb2dVertex
 10
758.850769
 20
2946.047607
 30
0.0
  0
VERTEX
  5
AF9
100
AcDbEntity
  8
0
100
AcDbVertex
100
AcDb2dVertex
 10
758.850769
 20
2934.26416
 30
0.0
  0
VERTEX
  5
AFA
100
AcDbEntity
  8
0
100
AcDbVertex
100
AcDb2dVertex
 10
748.850769
 20
2927.194092
 30
0.0
  0
VERTEX
  5
AFB
100
AcDbEntity
  8
0
100
AcDbVertex
100
AcDb2dVertex
 10
725.517395
 20
2927.194092
 30
0.0
  0
VERTEX
  5
AFC
100
AcDbEntity
  8
0
100
AcDbVertex
100
AcDb2dVertex
 10
715.517395
 20
2934.26416
 30
0.0
  0
VERTEX
  5
AFD
100
AcDbEntity
  8
0
100
AcDbVertex
100
AcDb2dVertex
 10
715.517395
 20
2948.404297
 30
0.0
  0
VERTEX
  5
AFE
100
AcDbEntity
  8
0
100
AcDbVertex
100
AcDb2dVertex
 10
722.184143
 20
2953.117676
 30
0.0
  0
SEQEND
  5
AFF
100
AcDbEntity
  8
0
  0
LINE
  5
B00
100
AcDbEntity
  8
0
 62
     7
100
AcDbLine
 10
884.14209
 20
2786.232666
 30
0.0
 11
752.184082
 21
2786.232666
 31
0.0
210
0.0
220
0.0
230
1.0
  0
LINE
  5
B01
100
AcDbEntity
  8
0
 62
     7
100
AcDbLine
 10
884.14209
 20
3022.232666
 30
0.0
 11
752.184082
 21
3022.232666
 31
0.0
210
0.0
220
0.0
230
1.0
  0
POLYLINE
  5
B02
100
AcDbEntity
  8
0
 62
     7
100
AcDb2dPolyline
 66
     1
 10
0.0
 20
0.0
 30
0.0
 71
     3
  0
VERTEX
  5
B03
100
AcDbEntity
  8
0
100
AcDbVertex
100
AcDb2dVertex
 10
761.83136
 20
2824.869629
 30
0.0
  0
VERTEX
  5
B04
100
AcDbEntity
  8
0
100
AcDbVertex
100
AcDb2dVertex
 10
772.184082
 20
2786.232666
 30
0.0
  0
VERTEX
  5
B05
100
AcDbEntity
  8
0
100
AcDbVertex
100
AcDb2dVertex
 10
782.536865
 20
2824.869629
 30
0.0
  0
SEQEND
  5
B06
100
AcDbEntity
  8
0
  0
POLYLINE
  5
B07
100
AcDbEntity
  8
0
 62
     7
100
AcDb2dPolyline
 66
     1
 10
0.0
 20
0.0
 30
0.0
 71
     3
  0
VERTEX
  5
B08
100
AcDbEntity
  8
0
100
AcDbVertex
100
AcDb2dVertex
 10
782.536865
 20
2983.595459
 30
0.0
  0
VERTEX
  5
B09
100
AcDbEntity
  8
0
100
AcDbVertex
100
AcDb2dVertex
 10
772.184082
 20
3022.232666
 30
0.0
  0
VERTEX
  5
B0A
100
AcDbEntity
  8
0
100
AcDbVertex
100
AcDb2dVertex
 10
761.83136
 20
2983.595459
 30
0.0
  0
SEQEND
  5
B0B
100
AcDbEntity
  8
0
  0
LINE
  5
B0C
100
AcDbEntity
  8
0
 62
     7
100
AcDbLine
 10
772.184082
 20
2786.232666
 30
0.0
 11
772.184082
 21
3022.232666
 31
0.0
210
0.0
220
0.0
230
1.0
  0
POLYLINE
  5
B0D
100
AcDbEntity
  8
0
 62
     7
100
AcDb2dPolyline
 66
     1
 10
0.0
 20
0.0
 30
0.0
 71
    10
  0
VERTEX
  5
B0E
100
AcDbEntity
  8
0
100
AcDbVertex
100
AcDb2dVertex
 10
722.184143
 20
2619.347412
 30
0.0
  0
VERTEX
  5
B0F
100
AcDbEntity
  8
0
100
AcDbVertex
100
AcDb2dVertex
 10
715.517395
 20
2624.061035
 30
0.0
  0
VERTEX
  5
B10
100
AcDbEntity
  8
0
100
AcDbVertex
100
AcDb2dVertex
 10
715.517395
 20
2638.200928
 30
0.0
  0
VERTEX
  5
B11
100
AcDbEntity
  8
0
100
AcDbVertex
100
AcDb2dVertex
 10
722.184143
 20
2642.914307
 30
0.0
  0
VERTEX
  5
B12
100
AcDbEntity
  8
0
100
AcDbVertex
100
AcDb2dVertex
 10
732.184143
 20
2642.914307
 30
0.0
  0
VERTEX
  5
B13
100
AcDbEntity
  8
0
100
AcDbVertex
100
AcDb2dVertex
 10
738.850769
 20
2638.200928
 30
0.0
  0
VERTEX
  5
B14
100
AcDbEntity
  8
0
100
AcDbVertex
100
AcDb2dVertex
 10
738.850769
 20
2628.774414
 30
0.0
  0
VERTEX
  5
B15
100
AcDbEntity
  8
0
100
AcDbVertex
100
AcDb2dVertex
 10
752.184143
 20
2619.347412
 30
0.0
  0
VERTEX
  5
B16
100
AcDbEntity
  8
0
100
AcDbVertex
100
AcDb2dVertex
 10
758.850769
 20
2619.347412
 30
0.0
  0
VERTEX
  5
B17
100
AcDbEntity
  8
0
100
AcDbVertex
100
AcDb2dVertex
 10
758.850769
 20
2645.270996
 30
0.0
  0
SEQEND
  5
B18
100
AcDbEntity
  8
0
  0
POLYLINE
  5
B19
100
AcDbEntity
  8
0
 62
     7
100
AcDb2dPolyline
 66
     1
 10
0.0
 20
0.0
 30
0.0
 71
     7
  0
VERTEX
  5
B1A
100
AcDbEntity
  8
0
100
AcDbVertex
100
AcDb2dVertex
 10
752.184143
 20
2655.270996
 30
0.0
  0
VERTEX
  5
B1B
100
AcDbEntity
  8
0
100
AcDbVertex
100
AcDb2dVertex
 10
758.850769
 20
2659.984375
 30
0.0
  0
VERTEX
  5
B1C
100
AcDbEntity
  8
0
100
AcDbVertex
100
AcDb2dVertex
 10
758.850769
 20
2676.480957
 30
0.0
  0
VERTEX
  5
B1D
100
AcDbEntity
  8
0
100
AcDbVertex
100
AcDb2dVertex
 10
752.184143
 20
2681.194336
 30
0.0
  0
VERTEX
  5
B1E
100
AcDbEntity
  8
0
100
AcDbVertex
100
AcDb2dVertex
 10
742.184143
 20
2681.194336
 30
0.0
  0
VERTEX
  5
B1F
100
AcDbEntity
  8
0
100
AcDbVertex
100
AcDb2dVertex
 10
735.517395
 20
2676.480957
 30
0.0
  0
VERTEX
  5
B20
100
AcDbEntity
  8
0
100
AcDbVertex
100
AcDb2dVertex
 10
735.517395
 20
2664.69751
 30
0.0
  0
SEQEND
  5
B21
100
AcDbEntity
  8
0
  0
POLYLINE
  5
B22
100
AcDbEntity
  8
0
 62
     7
100
AcDb2dPolyline
 66
     1
 10
0.0
 20
0.0
 30
0.0
 71
     6
  0
VERTEX
  5
B23
100
AcDbEntity
  8
0
100
AcDbVertex
100
AcDb2dVertex
 10
735.517395
 20
2676.480957
 30
0.0
  0
VERTEX
  5
B24
100
AcDbEntity
  8
0
100
AcDbVertex
100
AcDb2dVertex
 10
728.850769
 20
2681.194336
 30
0.0
  0
VERTEX
  5
B25
100
AcDbEntity
  8
0
100
AcDbVertex
100
AcDb2dVertex
 10
722.184143
 20
2681.194336
 30
0.0
  0
VERTEX
  5
B26
100
AcDbEntity
  8
0
100
AcDbVertex
100
AcDb2dVertex
 10
715.517395
 20
2676.480957
 30
0.0
  0
VERTEX
  5
B27
100
AcDbEntity
  8
0
100
AcDbVertex
100
AcDb2dVertex
 10
715.517395
 20
2659.984375
 30
0.0
  0
VERTEX
  5
B28
100
AcDbEntity
  8
0
100
AcDbVertex
100
AcDb2dVertex
 10
722.184143
 20
2655.270996
 30
0.0
  0
SEQEND
  5
B29
100
AcDbEntity
  8
0
  0
POLYLINE
  5
B2A
100
AcDbEntity
  8
0
 62
     7
100
AcDb2dPolyline
 66
     1
 10
0.0
 20
0.0
 30
0.0
 71
    12
  0
VERTEX
  5
B2B
100
AcDbEntity
  8
0
100
AcDbVertex
100
AcDb2dVertex
 10
742.184143
 20
2691.194336
 30
0.0
  0
VERTEX
  5
B2C
100
AcDbEntity
  8
0
100
AcDbVertex
100
AcDb2dVertex
 10
732.184143
 20
2698.264404
 30
0.0
  0
VERTEX
  5
B2D
100
AcDbEntity
  8
0
100
AcDbVertex
100
AcDb2dVertex
 10
732.184143
 20
2710.047607
 30
0.0
  0
VERTEX
  5
B2E
100
AcDbEntity
  8
0
100
AcDbVertex
100
AcDb2dVertex
 10
742.184143
 20
2717.117676
 30
0.0
  0
VERTEX
  5
B2F
100
AcDbEntity
  8
0
100
AcDbVertex
100
AcDb2dVertex
 10
748.850769
 20
2717.117676
 30
0.0
  0
VERTEX
  5
B30
100
AcDbEntity
  8
0
100
AcDbVertex
100
AcDb2dVertex
 10
758.850769
 20
2710.047607
 30
0.0
  0
VERTEX
  5
B31
100
AcDbEntity
  8
0
100
AcDbVertex
100
AcDb2dVertex
 10
758.850769
 20
2698.264404
 30
0.0
  0
VERTEX
  5
B32
100
AcDbEntity
  8
0
100
AcDbVertex
100
AcDb2dVertex
 10
748.850769
 20
2691.194336
 30
0.0
  0
VERTEX
  5
B33
100
AcDbEntity
  8
0
100
AcDbVertex
100
AcDb2dVertex
 10
725.517395
 20
2691.194336
 30
0.0
  0
VERTEX
  5
B34
100
AcDbEntity
  8
0
100
AcDbVertex
100
AcDb2dVertex
 10
715.517395
 20
2698.264404
 30
0.0
  0
VERTEX
  5
B35
100
AcDbEntity
  8
0
100
AcDbVertex
100
AcDb2dVertex
 10
715.517395
 20
2712.404541
 30
0.0
  0
VERTEX
  5
B36
100
AcDbEntity
  8
0
100
AcDbVertex
100
AcDb2dVertex
 10
722.184143
 20
2717.117676
 30
0.0
  0
SEQEND
  5
B37
100
AcDbEntity
  8
0
  0
LINE
  5
B38
100
AcDbEntity
  8
0
 62
     7
100
AcDbLine
 10
884.14209
 20
2550.232666
 30
0.0
 11
752.184082
 21
2550.232666
 31
0.0
210
0.0
220
0.0
230
1.0
  0
LINE
  5
B39
100
AcDbEntity
  8
0
 62
     7
100
AcDbLine
 10
884.14209
 20
2786.232666
 30
0.0
 11
752.184082
 21
2786.232666
 31
0.0
210
0.0
220
0.0
230
1.0
  0
POLYLINE
  5
B3A
100
AcDbEntity
  8
0
 62
     7
100
AcDb2dPolyline
 66
     1
 10
0.0
 20
0.0
 30
0.0
 71
     3
  0
VERTEX
  5
B3B
100
AcDbEntity
  8
0
100
AcDbVertex
100
AcDb2dVertex
 10
761.83136
 20
2588.869629
 30
0.0
  0
VERTEX
  5
B3C
100
AcDbEntity
  8
0
100
AcDbVertex
100
AcDb2dVertex
 10
772.184082
 20
2550.232666
 30
0.0
  0
VERTEX
  5
B3D
100
AcDbEntity
  8
0
100
AcDbVertex
100
AcDb2dVertex
 10
782.536865
 20
2588.869629
 30
0.0
  0
SEQEND
  5
B3E
100
AcDbEntity
  8
0
  0
POLYLINE
  5
B3F
100
AcDbEntity
  8
0
 62
     7
100
AcDb2dPolyline
 66
     1
 10
0.0
 20
0.0
 30
0.0
 71
     3
  0
VERTEX
  5
B40
100
AcDbEntity
  8
0
100
AcDbVertex
100
AcDb2dVertex
 10
782.536865
 20
2747.595459
 30
0.0
  0
VERTEX
  5
B41
100
AcDbEntity
  8
0
100
AcDbVertex
100
AcDb2dVertex
 10
772.184082
 20
2786.232666
 30
0.0
  0
VERTEX
  5
B42
100
AcDbEntity
  8
0
100
AcDbVertex
100
AcDb2dVertex
 10
761.83136
 20
2747.595459
 30
0.0
  0
SEQEND
  5
B43
100
AcDbEntity
  8
0
  0
LINE
  5
B44
100
AcDbEntity
  8
0
 62
     7
100
AcDbLine
 10
772.184082
 20
2550.232666
 30
0.0
 11
772.184082
 21
2786.232666
 31
0.0
210
0.0
220
0.0
230
1.0
  0
LINE
  5
B45
100
AcDbEntity
  8
0
  6
DASHDOT
 62
     7
 48
0.324994
100
AcDbLine
 10
909.881653
 20
3487.73291
 30
0.0
 11
909.881653
 21
3500.732666
 31
0.0
210
0.0
220
0.0
230
1.0
  0
LINE
  5
B46
100
AcDbEntity
  8
0
  6
DASHDOT
 62
     7
 48
0.286981
100
AcDbLine
 10
915.621338
 20
3494.23291
 30
0.0
 11
904.14209
 21
3494.23291
 31
0.0
210
0.0
220
0.0
230
1.0
  0
LINE
  5
B47
100
AcDbEntity
  8
0
  6
DASHDOT
 62
     7
 48
0.324994
100
AcDbLine
 10
909.881653
 20
3251.73291
 30
0.0
 11
909.881653
 21
3264.732666
 31
0.0
210
0.0
220
0.0
230
1.0
  0
LINE
  5
B48
100
AcDbEntity
  8
0
  6
DASHDOT
 62
     7
 48
0.286981
100
AcDbLine
 10
915.621338
 20
3258.232666
 30
0.0
 11
904.14209
 21
3258.232666
 31
0.0
210
0.0
220
0.0
230
1.0
  0
LINE
  5
B49
100
AcDbEntity
  8
0
  6
DASHDOT
 62
     7
 48
0.325
100
AcDbLine
 10
909.881653
 20
3015.732666
 30
0.0
 11
909.881653
 21
3028.732666
 31
0.0
210
0.0
220
0.0
230
1.0
  0
LINE
  5
B4A
100
AcDbEntity
  8
0
  6
DASHDOT
 62
     7
 48
0.286981
100
AcDbLine
 10
915.621338
 20
3022.232666
 30
0.0
 11
904.14209
 21
3022.232666
 31
0.0
210
0.0
220
0.0
230
1.0
  0
LINE
  5
B4B
100
AcDbEntity
  8
0
  6
DASHDOT
 62
     7
 48
0.324994
100
AcDbLine
 10
909.881653
 20
2779.732666
 30
0.0
 11
909.881653
 21
2792.732422
 31
0.0
210
0.0
220
0.0
230
1.0
  0
LINE
  5
B4C
100
AcDbEntity
  8
0
  6
DASHDOT
 62
     7
 48
0.286981
100
AcDbLine
 10
915.621338
 20
2786.232666
 30
0.0
 11
904.14209
 21
2786.232666
 31
0.0
210
0.0
220
0.0
230
1.0
  0
LINE
  5
B4D
100
AcDbEntity
  8
0
  6
DASHDOT
 62
     7
 48
0.325006
100
AcDbLine
 10
909.881653
 20
2543.732422
 30
0.0
 11
909.881653
 21
2556.732666
 31
0.0
210
0.0
220
0.0
230
1.0
  0
LINE
  5
B4E
100
AcDbEntity
  8
0
  6
DASHDOT
 62
     7
 48
0.286981
100
AcDbLine
 10
915.621338
 20
2550.232666
 30
0.0
 11
904.14209
 21
2550.232666
 31
0.0
210
0.0
220
0.0
230
1.0
  0
POLYLINE
  5
B4F
100
AcDbEntity
  8
0
 62
     7
100
AcDb2dPolyline
 66
     1
 10
0.0
 20
0.0
 30
0.0
 71
    10
  0
VERTEX
  5
B50
100
AcDbEntity
  8
0
100
AcDbVertex
100
AcDb2dVertex
 10
1084.483521
 20
3831.595703
 30
0.0
  0
VERTEX
  5
B51
100
AcDbEntity
  8
0
100
AcDbVertex
100
AcDb2dVertex
 10
1090.422363
 20
3823.195801
 30
0.0
  0
VERTEX
  5
B52
100
AcDbEntity
  8
0
100
AcDbVertex
100
AcDb2dVertex
 10
1108.238647
 20
3823.195801
 30
0.0
  0
VERTEX
  5
B53
100
AcDbEntity
  8
0
100
AcDbVertex
100
AcDb2dVertex
 10
1117.146973
 20
3835.795654
 30
0.0
  0
VERTEX
  5
B54
100
AcDbEntity
  8
0
100
AcDbVertex
100
AcDb2dVertex
 10
1117.146973
 20
3844.195557
 30
0.0
  0
VERTEX
  5
B55
100
AcDbEntity
  8
0
100
AcDbVertex
100
AcDb2dVertex
 10
1108.238647
 20
3856.795654
 30
0.0
  0
VERTEX
  5
B56
100
AcDbEntity
  8
0
100
AcDbVertex
100
AcDb2dVertex
 10
1093.391724
 20
3856.795654
 30
0.0
  0
VERTEX
  5
B57
100
AcDbEntity
  8
0
100
AcDbVertex
100
AcDb2dVertex
 10
1084.483521
 20
3848.395752
 30
0.0
  0
VERTEX
  5
B58
100
AcDbEntity
  8
0
100
AcDbVertex
100
AcDb2dVertex
 10
1084.483521
 20
3877.795898
 30
0.0
  0
VERTEX
  5
B59
100
AcDbEntity
  8
0
100
AcDbVertex
100
AcDb2dVertex
 10
1114.17749
 20
3877.795898
 30
0.0
  0
SEQEND
  5
B5A
100
AcDbEntity
  8
0
  0
LINE
  5
B5B
100
AcDbEntity
  8
0
 62
     7
100
AcDbLine
 10
1132.716309
 20
3823.195801
 30
0.0
 11
1168.349121
 21
3873.595703
 31
0.0
210
0.0
220
0.0
230
1.0
  0
LINE
  5
B5C
100
AcDbEntity
  8
0
 62
     7
100
AcDbLine
 10
1168.349121
 20
3823.195801
 30
0.0
 11
1132.716309
 21
3873.595703
 31
0.0
210
0.0
220
0.0
230
1.0
  0
POLYLINE
  5
B5D
100
AcDbEntity
  8
0
 62
     7
100
AcDb2dPolyline
 66
     1
 10
0.0
 20
0.0
 30
0.0
 71
     5
  0
VERTEX
  5
B5E
100
AcDbEntity
  8
0
100
AcDbVertex
100
AcDb2dVertex
 10
1186.887939
 20
3823.195801
 30
0.0
  0
VERTEX
  5
B5F
100
AcDbEntity
  8
0
100
AcDbVertex
100
AcDb2dVertex
 10
1186.887939
 20
3877.795898
 30
0.0
  0
VERTEX
  5
B60
100
AcDbEntity
  8
0
100
AcDbVertex
100
AcDb2dVertex
 10
1207.673706
 20
3827.395752
 30
0.0
  0
VERTEX
  5
B61
100
AcDbEntity
  8
0
100
AcDbVertex
100
AcDb2dVertex
 10
1228.459473
 20
3877.795898
 30
0.0
  0
VERTEX
  5
B62
100
AcDbEntity
  8
0
100
AcDbVertex
100
AcDb2dVertex
 10
1228.459473
 20
3823.195801
 30
0.0
  0
SEQEND
  5
B63
100
AcDbEntity
  8
0
  0
POLYLINE
  5
B64
100
AcDbEntity
  8
0
 62
     7
100
AcDb2dPolyline
 66
     1
 10
0.0
 20
0.0
 30
0.0
 71
    16
  0
VERTEX
  5
B65
100
AcDbEntity
  8
0
100
AcDbVertex
100
AcDb2dVertex
 10
1246.998291
 20
3852.595703
 30
0.0
  0
VERTEX
  5
B66
100
AcDbEntity
  8
0
100
AcDbVertex
100
AcDb2dVertex
 10
1241.05957
 20
3844.195557
 30
0.0
  0
VERTEX
  5
B67
100
AcDbEntity
  8
0
100
AcDbVertex
100
AcDb2dVertex
 10
1241.05957
 20
3831.595703
 30
0.0
  0
VERTEX
  5
B68
100
AcDbEntity
  8
0
100
AcDbVertex
100
AcDb2dVertex
 10
1246.998291
 20
3823.195801
 30
0.0
  0
VERTEX
  5
B69
100
AcDbEntity
  8
0
100
AcDbVertex
100
AcDb2dVertex
 10
1267.78418
 20
3823.195801
 30
0.0
  0
VERTEX
  5
B6A
100
AcDbEntity
  8
0
100
AcDbVertex
100
AcDb2dVertex
 10
1273.7229
 20
3831.595703
 30
0.0
  0
VERTEX
  5
B6B
100
AcDbEntity
  8
0
100
AcDbVertex
100
AcDb2dVertex
 10
1273.7229
 20
3844.195557
 30
0.0
  0
VERTEX
  5
B6C
100
AcDbEntity
  8
0
100
AcDbVertex
100
AcDb2dVertex
 10
1267.78418
 20
3852.595703
 30
0.0
  0
VERTEX
  5
B6D
100
AcDbEntity
  8
0
100
AcDbVertex
100
AcDb2dVertex
 10
1246.998291
 20
3852.595703
 30
0.0
  0
VERTEX
  5
B6E
100
AcDbEntity
  8
0
100
AcDbVertex
100
AcDb2dVertex
 10
1241.05957
 20
3860.99585
 30
0.0
  0
VERTEX
  5
B6F
100
AcDbEntity
  8
0
100
AcDbVertex
100
AcDb2dVertex
 10
1241.05957
 20
3869.395752
 30
0.0
  0
VERTEX
  5
B70
100
AcDbEntity
  8
0
100
AcDbVertex
100
AcDb2dVertex
 10
1246.998291
 20
3877.795898
 30
0.0
  0
VERTEX
  5
B71
100
AcDbEntity
  8
0
100
AcDbVertex
100
AcDb2dVertex
 10
1267.78418
 20
3877.795898
 30
0.0
  0
VERTEX
  5
B72
100
AcDbEntity
  8
0
100
AcDbVertex
100
AcDb2dVertex
 10
1273.7229
 20
3869.395752
 30
0.0
  0
VERTEX
  5
B73
100
AcDbEntity
  8
0
100
AcDbVertex
100
AcDb2dVertex
 10
1273.7229
 20
3860.99585
 30
0.0
  0
VERTEX
  5
B74
100
AcDbEntity
  8
0
100
AcDbVertex
100
AcDb2dVertex
 10
1267.78418
 20
3852.595703
 30
0.0
  0
SEQEND
  5
B75
100
AcDbEntity
  8
0
  0
POLYLINE
  5
B76
100
AcDbEntity
  8
0
 62
     7
100
AcDb2dPolyline
 66
     1
 10
0.0
 20
0.0
 30
0.0
 71
     3
  0
VERTEX
  5
B77
100
AcDbEntity
  8
0
100
AcDbVertex
100
AcDb2dVertex
 10
911.674255
 20
3498.763184
 30
0.0
  0
VERTEX
  5
B78
100
AcDbEntity
  8
0
100
AcDbVertex
100
AcDb2dVertex
 10
1081.483521
 20
3817.945557
 30
0.0
  0
VERTEX
  5
B79
100
AcDbEntity
  8
0
100
AcDbVertex
100
AcDb2dVertex
 10
1273.7229
 20
3817.945557
 30
0.0
  0
SEQEND
  5
B7A
100
AcDbEntity
  8
0
  0
POLYLINE
  5
B7B
100
AcDbEntity
  8
0
 62
     7
100
AcDb2dPolyline
 66
     1
 10
0.0
 20
0.0
 30
0.0
 71
     3
  0
VERTEX
  5
B7C
100
AcDbEntity
  8
0
100
AcDbVertex
100
AcDb2dVertex
 10
920.681519
 20
3537.73584
 30
0.0
  0
VERTEX
  5
B7D
100
AcDbEntity
  8
0
100
AcDbVertex
100
AcDb2dVertex
 10
911.674255
 20
3498.763184
 30
0.0
  0
VERTEX
  5
B7E
100
AcDbEntity
  8
0
100
AcDbVertex
100
AcDb2dVertex
 10
938.961121
 20
3528.010986
 30
0.0
  0
SEQEND
  5
B7F
100
AcDbEntity
  8
0
  0
LINE
  5
B80
100
AcDbEntity
  8
0
 62
     7
100
AcDbLine
 10
1562.286987
 20
2488.232422
 30
0.0
 11
846.286865
 21
2488.232422
 31
0.0
210
0.0
220
0.0
230
1.0
  0
LINE
  5
B81
100
AcDbEntity
  8
0
 62
     7
 48
0.224994
100
AcDbLine
 10
1571.287109
 20
2497.232666
 30
0.0
 11
1571.287109
 21
2506.232422
 31
0.0
210
0.0
220
0.0
230
1.0
  0
LINE
  5
B82
100
AcDbEntity
  8
0
 62
     7
 48
0.224994
100
AcDbLine
 10
846.286865
 20
2497.232666
 30
0.0
 11
846.286865
 21
2506.232422
 31
0.0
210
0.0
220
0.0
230
1.0
  0
LINE
  5
B83
100
AcDbEntity
  8
0
 62
     7
 48
0.225006
100
AcDbLine
 10
846.286865
 20
2497.232666
 30
0.0
 11
846.286865
 21
2488.232422
 31
0.0
210
0.0
220
0.0
230
1.0
  0
ARC
  5
B84
100
AcDbEntity
  8
0
 62
     7
100
AcDbCircle
 10
1562.286987
 20
2497.232666
 30
0.0
 40
9.000001
210
0.0
220
0.0
230
1.0
100
AcDbArc
 50
269.999997
 51
360.0
  0
LINE
  5
B85
100
AcDbEntity
  8
0
 62
     7
100
AcDbLine
 10
1571.287109
 20
2506.232422
 30
0.0
 11
1571.287109
 21
3538.232666
 31
0.0
210
0.0
220
0.0
230
1.0
  0
LINE
  5
B86
100
AcDbEntity
  8
0
 62
     7
100
AcDbLine
 10
846.286865
 20
2506.232422
 30
0.0
 11
846.286865
 21
3538.232666
 31
0.0
210
0.0
220
0.0
230
1.0
  0
POLYLINE
  5
B87
100
AcDbEntity
  8
0
 62
     7
100
AcDb2dPolyline
 66
     1
 10
0.0
 20
0.0
 30
0.0
 71
    11
  0
VERTEX
  5
B88
100
AcDbEntity
  8
0
100
AcDbVertex
100
AcDb2dVertex
 10
909.881653
 20
2555.232666
 30
0.0
  0
VERTEX
  5
B89
100
AcDbEntity
  8
0
100
AcDbVertex
100
AcDb2dVertex
 10
908.666016
 20
2555.022705
 30
0.0
  0
VERTEX
  5
B8A
100
AcDbEntity
  8
0
100
AcDbVertex
100
AcDb2dVertex
 10
907.545654
 20
2554.405029
 30
0.0
  0
VERTEX
  5
B8B
100
AcDbEntity
  8
0
100
AcDbVertex
100
AcDb2dVertex
 10
906.610352
 20
2553.413086
 30
0.0
  0
VERTEX
  5
B8C
100
AcDbEntity
  8
0
100
AcDbVertex
100
AcDb2dVertex
 10
905.95282
 20
2552.111816
 30
0.0
  0
VERTEX
  5
B8D
100
AcDbEntity
  8
0
100
AcDbVertex
100
AcDb2dVertex
 10
905.654175
 20
2550.61084
 30
0.0
  0
VERTEX
  5
B8E
100
AcDbEntity
  8
0
100
AcDbVertex
100
AcDb2dVertex
 10
905.760132
 20
2549.060547
 30
0.0
  0
VERTEX
  5
B8F
100
AcDbEntity
  8
0
100
AcDbVertex
100
AcDb2dVertex
 10
906.262695
 20
2547.62793
 30
0.0
  0
VERTEX
  5
B90
100
AcDbEntity
  8
0
100
AcDbVertex
100
AcDb2dVertex
 10
907.099182
 20
2546.460205
 30
0.0
  0
VERTEX
  5
B91
100
AcDbEntity
  8
0
100
AcDbVertex
100
AcDb2dVertex
 10
908.171082
 20
2545.657715
 30
0.0
  0
VERTEX
  5
B92
100
AcDbEntity
  8
0
100
AcDbVertex
100
AcDb2dVertex
 10
909.881653
 20
2545.232666
 30
0.0
  0
SEQEND
  5
B93
100
AcDbEntity
  8
0
  0
POLYLINE
  5
B94
100
AcDbEntity
  8
0
 62
     7
100
AcDb2dPolyline
 66
     1
 10
0.0
 20
0.0
 30
0.0
 71
     6
  0
VERTEX
  5
B95
100
AcDbEntity
  8
0
100
AcDbVertex
100
AcDb2dVertex
 10
914.121338
 20
2550.232666
 30
0.0
  0
VERTEX
  5
B96
100
AcDbEntity
  8
0
100
AcDbVertex
100
AcDb2dVertex
 10
913.916077
 20
2551.769287
 30
0.0
  0
VERTEX
  5
B97
100
AcDbEntity
  8
0
100
AcDbVertex
100
AcDb2dVertex
 10
913.324951
 20
2553.149902
 30
0.0
  0
VERTEX
  5
B98
100
AcDbEntity
  8
0
100
AcDbVertex
100
AcDb2dVertex
 10
912.42157
 20
2554.236084
 30
0.0
  0
VERTEX
  5
B99
100
AcDbEntity
  8
0
100
AcDbVertex
100
AcDb2dVertex
 10
911.308838
 20
2554.940918
 30
0.0
  0
VERTEX
  5
B9A
100
AcDbEntity
  8
0
100
AcDbVertex
100
AcDb2dVertex
 10
909.881653
 20
2555.232666
 30
0.0
  0
SEQEND
  5
B9B
100
AcDbEntity
  8
0
  0
POLYLINE
  5
B9C
100
AcDbEntity
  8
0
 62
     7
100
AcDb2dPolyline
 66
     1
 10
0.0
 20
0.0
 30
0.0
 71
     6
  0
VERTEX
  5
B9D
100
AcDbEntity
  8
0
100
AcDbVertex
100
AcDb2dVertex
 10
909.881653
 20
2545.232666
 30
0.0
  0
VERTEX
  5
B9E
100
AcDbEntity
  8
0
100
AcDbVertex
100
AcDb2dVertex
 10
911.097351
 20
2545.442627
 30
0.0
  0
VERTEX
  5
B9F
100
AcDbEntity
  8
0
100
AcDbVertex
100
AcDb2dVertex
 10
912.217712
 20
2546.060059
 30
0.0
  0
VERTEX
  5
BA0
100
AcDbEntity
  8
0
100
AcDbVertex
100
AcDb2dVertex
 10
913.153076
 20
2547.052002
 30
0.0
  0
VERTEX
  5
BA1
100
AcDbEntity
  8
0
100
AcDbVertex
100
AcDb2dVertex
 10
913.810486
 20
2548.353516
 30
0.0
  0
VERTEX
  5
BA2
100
AcDbEntity
  8
0
100
AcDbVertex
100
AcDb2dVertex
 10
914.121338
 20
2550.232666
 30
0.0
  0
SEQEND
  5
BA3
100
AcDbEntity
  8
0
  0
POLYLINE
  5
BA4
100
AcDbEntity
  8
0
 62
     7
100
AcDb2dPolyline
 66
     1
 10
0.0
 20
0.0
 30
0.0
 71
    11
  0
VERTEX
  5
BA5
100
AcDbEntity
  8
0
100
AcDbVertex
100
AcDb2dVertex
 10
909.881653
 20
3263.232666
 30
0.0
  0
VERTEX
  5
BA6
100
AcDbEntity
  8
0
100
AcDbVertex
100
AcDb2dVertex
 10
908.666016
 20
3263.022705
 30
0.0
  0
VERTEX
  5
BA7
100
AcDbEntity
  8
0
100
AcDbVertex
100
AcDb2dVertex
 10
907.545654
 20
3262.405518
 30
0.0
  0
VERTEX
  5
BA8
100
AcDbEntity
  8
0
100
AcDbVertex
100
AcDb2dVertex
 10
906.610352
 20
3261.41333
 30
0.0
  0
VERTEX
  5
BA9
100
AcDbEntity
  8
0
100
AcDbVertex
100
AcDb2dVertex
 10
905.95282
 20
3260.112061
 30
0.0
  0
VERTEX
  5
BAA
100
AcDbEntity
  8
0
100
AcDbVertex
100
AcDb2dVertex
 10
905.654175
 20
3258.61084
 30
0.0
  0
VERTEX
  5
BAB
100
AcDbEntity
  8
0
100
AcDbVertex
100
AcDb2dVertex
 10
905.760132
 20
3257.060547
 30
0.0
  0
VERTEX
  5
BAC
100
AcDbEntity
  8
0
100
AcDbVertex
100
AcDb2dVertex
 10
906.262695
 20
3255.628174
 30
0.0
  0
VERTEX
  5
BAD
100
AcDbEntity
  8
0
100
AcDbVertex
100
AcDb2dVertex
 10
907.09906
 20
3254.460449
 30
0.0
  0
VERTEX
  5
BAE
100
AcDbEntity
  8
0
100
AcDbVertex
100
AcDb2dVertex
 10
908.171021
 20
3253.657959
 30
0.0
  0
VERTEX
  5
BAF
100
AcDbEntity
  8
0
100
AcDbVertex
100
AcDb2dVertex
 10
909.881653
 20
3253.232666
 30
0.0
  0
SEQEND
  5
BB0
100
AcDbEntity
  8
0
  0
POLYLINE
  5
BB1
100
AcDbEntity
  8
0
 62
     7
100
AcDb2dPolyline
 66
     1
 10
0.0
 20
0.0
 30
0.0
 71
     6
  0
VERTEX
  5
BB2
100
AcDbEntity
  8
0
100
AcDbVertex
100
AcDb2dVertex
 10
914.121338
 20
3258.232666
 30
0.0
  0
VERTEX
  5
BB3
100
AcDbEntity
  8
0
100
AcDbVertex
100
AcDb2dVertex
 10
913.916077
 20
3259.769531
 30
0.0
  0
VERTEX
  5
BB4
100
AcDbEntity
  8
0
100
AcDbVertex
100
AcDb2dVertex
 10
913.324951
 20
3261.149902
 30
0.0
  0
VERTEX
  5
BB5
100
AcDbEntity
  8
0
100
AcDbVertex
100
AcDb2dVertex
 10
912.42157
 20
3262.236084
 30
0.0
  0
VERTEX
  5
BB6
100
AcDbEntity
  8
0
100
AcDbVertex
100
AcDb2dVertex
 10
911.308838
 20
3262.940918
 30
0.0
  0
VERTEX
  5
BB7
100
AcDbEntity
  8
0
100
AcDbVertex
100
AcDb2dVertex
 10
909.881653
 20
3263.232666
 30
0.0
  0
SEQEND
  5
BB8
100
AcDbEntity
  8
0
  0
POLYLINE
  5
BB9
100
AcDbEntity
  8
0
 62
     7
100
AcDb2dPolyline
 66
     1
 10
0.0
 20
0.0
 30
0.0
 71
     6
  0
VERTEX
  5
BBA
100
AcDbEntity
  8
0
100
AcDbVertex
100
AcDb2dVertex
 10
909.881653
 20
3253.232666
 30
0.0
  0
VERTEX
  5
BBB
100
AcDbEntity
  8
0
100
AcDbVertex
100
AcDb2dVertex
 10
911.097351
 20
3253.442627
 30
0.0
  0
VERTEX
  5
BBC
100
AcDbEntity
  8
0
100
AcDbVertex
100
AcDb2dVertex
 10
912.217712
 20
3254.060059
 30
0.0
  0
VERTEX
  5
BBD
100
AcDbEntity
  8
0
100
AcDbVertex
100
AcDb2dVertex
 10
913.153015
 20
3255.052246
 30
0.0
  0
VERTEX
  5
BBE
100
AcDbEntity
  8
0
100
AcDbVertex
100
AcDb2dVertex
 10
913.810486
 20
3256.353516
 30
0.0
  0
VERTEX
  5
BBF
100
AcDbEntity
  8
0
100
AcDbVertex
100
AcDb2dVertex
 10
914.121338
 20
3258.232666
 30
0.0
  0
SEQEND
  5
BC0
100
AcDbEntity
  8
0
  0
POLYLINE
  5
BC1
100
AcDbEntity
  8
0
 62
     7
100
AcDb2dPolyline
 66
     1
 10
0.0
 20
0.0
 30
0.0
 71
    11
  0
VERTEX
  5
BC2
100
AcDbEntity
  8
0
100
AcDbVertex
100
AcDb2dVertex
 10
909.881653
 20
3499.23291
 30
0.0
  0
VERTEX
  5
BC3
100
AcDbEntity
  8
0
100
AcDbVertex
100
AcDb2dVertex
 10
908.666077
 20
3499.022949
 30
0.0
  0
VERTEX
  5
BC4
100
AcDbEntity
  8
0
100
AcDbVertex
100
AcDb2dVertex
 10
907.545654
 20
3498.405518
 30
0.0
  0
VERTEX
  5
BC5
100
AcDbEntity
  8
0
100
AcDbVertex
100
AcDb2dVertex
 10
906.610352
 20
3497.41333
 30
0.0
  0
VERTEX
  5
BC6
100
AcDbEntity
  8
0
100
AcDbVertex
100
AcDb2dVertex
 10
905.95282
 20
3496.112061
 30
0.0
  0
VERTEX
  5
BC7
100
AcDbEntity
  8
0
100
AcDbVertex
100
AcDb2dVertex
 10
905.654175
 20
3494.61084
 30
0.0
  0
VERTEX
  5
BC8
100
AcDbEntity
  8
0
100
AcDbVertex
100
AcDb2dVertex
 10
905.760132
 20
3493.061035
 30
0.0
  0
VERTEX
  5
BC9
100
AcDbEntity
  8
0
100
AcDbVertex
100
AcDb2dVertex
 10
906.262695
 20
3491.628174
 30
0.0
  0
VERTEX
  5
BCA
100
AcDbEntity
  8
0
100
AcDbVertex
100
AcDb2dVertex
 10
907.09906
 20
3490.460449
 30
0.0
  0
VERTEX
  5
BCB
100
AcDbEntity
  8
0
100
AcDbVertex
100
AcDb2dVertex
 10
908.171021
 20
3489.657959
 30
0.0
  0
VERTEX
  5
BCC
100
AcDbEntity
  8
0
100
AcDbVertex
100
AcDb2dVertex
 10
909.881653
 20
3489.23291
 30
0.0
  0
SEQEND
  5
BCD
100
AcDbEntity
  8
0
  0
POLYLINE
  5
BCE
100
AcDbEntity
  8
0
 62
     7
100
AcDb2dPolyline
 66
     1
 10
0.0
 20
0.0
 30
0.0
 71
     6
  0
VERTEX
  5
BCF
100
AcDbEntity
  8
0
100
AcDbVertex
100
AcDb2dVertex
 10
914.121338
 20
3494.23291
 30
0.0
  0
VERTEX
  5
BD0
100
AcDbEntity
  8
0
100
AcDbVertex
100
AcDb2dVertex
 10
913.916077
 20
3495.769775
 30
0.0
  0
VERTEX
  5
BD1
100
AcDbEntity
  8
0
100
AcDbVertex
100
AcDb2dVertex
 10
913.324951
 20
3497.149902
 30
0.0
  0
VERTEX
  5
BD2
100
AcDbEntity
  8
0
100
AcDbVertex
100
AcDb2dVertex
 10
912.42157
 20
3498.236084
 30
0.0
  0
VERTEX
  5
BD3
100
AcDbEntity
  8
0
100
AcDbVertex
100
AcDb2dVertex
 10
911.308838
 20
3498.941162
 30
0.0
  0
VERTEX
  5
BD4
100
AcDbEntity
  8
0
100
AcDbVertex
100
AcDb2dVertex
 10
909.881653
 20
3499.23291
 30
0.0
  0
SEQEND
  5
BD5
100
AcDbEntity
  8
0
  0
POLYLINE
  5
BD6
100
AcDbEntity
  8
0
 62
     7
100
AcDb2dPolyline
 66
     1
 10
0.0
 20
0.0
 30
0.0
 71
     6
  0
VERTEX
  5
BD7
100
AcDbEntity
  8
0
100
AcDbVertex
100
AcDb2dVertex
 10
909.881653
 20
3489.23291
 30
0.0
  0
VERTEX
  5
BD8
100
AcDbEntity
  8
0
100
AcDbVertex
100
AcDb2dVertex
 10
911.097351
 20
3489.442871
 30
0.0
  0
VERTEX
  5
BD9
100
AcDbEntity
  8
0
100
AcDbVertex
100
AcDb2dVertex
 10
912.217712
 20
3490.060059
 30
0.0
  0
VERTEX
  5
BDA
100
AcDbEntity
  8
0
100
AcDbVertex
100
AcDb2dVertex
 10
913.153015
 20
3491.052246
 30
0.0
  0
VERTEX
  5
BDB
100
AcDbEntity
  8
0
100
AcDbVertex
100
AcDb2dVertex
 10
913.810486
 20
3492.353516
 30
0.0
  0
VERTEX
  5
BDC
100
AcDbEntity
  8
0
100
AcDbVertex
100
AcDb2dVertex
 10
914.121338
 20
3494.23291
 30
0.0
  0
SEQEND
  5
BDD
100
AcDbEntity
  8
0
  0
POLYLINE
  5
BDE
100
AcDbEntity
  8
0
 62
     7
100
AcDb2dPolyline
 66
     1
 10
0.0
 20
0.0
 30
0.0
 71
    11
  0
VERTEX
  5
BDF
100
AcDbEntity
  8
0
100
AcDbVertex
100
AcDb2dVertex
 10
909.881653
 20
2781.232666
 30
0.0
  0
VERTEX
  5
BE0
100
AcDbEntity
  8
0
100
AcDbVertex
100
AcDb2dVertex
 10
911.097351
 20
2781.442627
 30
0.0
  0
VERTEX
  5
BE1
100
AcDbEntity
  8
0
100
AcDbVertex
100
AcDb2dVertex
 10
912.217712
 20
2782.059814
 30
0.0
  0
VERTEX
  5
BE2
100
AcDbEntity
  8
0
100
AcDbVertex
100
AcDb2dVertex
 10
913.153015
 20
2783.052002
 30
0.0
  0
VERTEX
  5
BE3
100
AcDbEntity
  8
0
100
AcDbVertex
100
AcDb2dVertex
 10
913.810486
 20
2784.353271
 30
0.0
  0
VERTEX
  5
BE4
100
AcDbEntity
  8
0
100
AcDbVertex
100
AcDb2dVertex
 10
914.109192
 20
2785.854492
 30
0.0
  0
VERTEX
  5
BE5
100
AcDbEntity
  8
0
100
AcDbVertex
100
AcDb2dVertex
 10
914.003235
 20
2787.404541
 30
0.0
  0
VERTEX
  5
BE6
100
AcDbEntity
  8
0
100
AcDbVertex
100
AcDb2dVertex
 10
913.500671
 20
2788.837158
 30
0.0
  0
VERTEX
  5
BE7
100
AcDbEntity
  8
0
100
AcDbVertex
100
AcDb2dVertex
 10
912.664246
 20
2790.004883
 30
0.0
  0
VERTEX
  5
BE8
100
AcDbEntity
  8
0
100
AcDbVertex
100
AcDb2dVertex
 10
911.592346
 20
2790.807373
 30
0.0
  0
VERTEX
  5
BE9
100
AcDbEntity
  8
0
100
AcDbVertex
100
AcDb2dVertex
 10
909.881653
 20
2791.232666
 30
0.0
  0
SEQEND
  5
BEA
100
AcDbEntity
  8
0
  0
POLYLINE
  5
BEB
100
AcDbEntity
  8
0
 62
     7
100
AcDb2dPolyline
 66
     1
 10
0.0
 20
0.0
 30
0.0
 71
     6
  0
VERTEX
  5
BEC
100
AcDbEntity
  8
0
100
AcDbVertex
100
AcDb2dVertex
 10
905.642029
 20
2786.232666
 30
0.0
  0
VERTEX
  5
BED
100
AcDbEntity
  8
0
100
AcDbVertex
100
AcDb2dVertex
 10
905.847229
 20
2784.695801
 30
0.0
  0
VERTEX
  5
BEE
100
AcDbEntity
  8
0
100
AcDbVertex
100
AcDb2dVertex
 10
906.438354
 20
2783.31543
 30
0.0
  0
VERTEX
  5
BEF
100
AcDbEntity
  8
0
100
AcDbVertex
100
AcDb2dVertex
 10
907.341797
 20
2782.229248
 30
0.0
  0
VERTEX
  5
BF0
100
AcDbEntity
  8
0
100
AcDbVertex
100
AcDb2dVertex
 10
908.454529
 20
2781.524414
 30
0.0
  0
VERTEX
  5
BF1
100
AcDbEntity
  8
0
100
AcDbVertex
100
AcDb2dVertex
 10
909.881653
 20
2781.232666
 30
0.0
  0
SEQEND
  5
BF2
100
AcDbEntity
  8
0
  0
POLYLINE
  5
BF3
100
AcDbEntity
  8
0
 62
     7
100
AcDb2dPolyline
 66
     1
 10
0.0
 20
0.0
 30
0.0
 71
     6
  0
VERTEX
  5
BF4
100
AcDbEntity
  8
0
100
AcDbVertex
100
AcDb2dVertex
 10
909.881653
 20
2791.232666
 30
0.0
  0
VERTEX
  5
BF5
100
AcDbEntity
  8
0
100
AcDbVertex
100
AcDb2dVertex
 10
908.666016
 20
2791.022705
 30
0.0
  0
VERTEX
  5
BF6
100
AcDbEntity
  8
0
100
AcDbVertex
100
AcDb2dVertex
 10
907.545654
 20
2790.405273
 30
0.0
  0
VERTEX
  5
BF7
100
AcDbEntity
  8
0
100
AcDbVertex
100
AcDb2dVertex
 10
906.610352
 20
2789.413086
 30
0.0
  0
VERTEX
  5
BF8
100
AcDbEntity
  8
0
100
AcDbVertex
100
AcDb2dVertex
 10
905.95282
 20
2788.111816
 30
0.0
  0
VERTEX
  5
BF9
100
AcDbEntity
  8
0
100
AcDbVertex
100
AcDb2dVertex
 10
905.642029
 20
2786.232666
 30
0.0
  0
SEQEND
  5
BFA
100
AcDbEntity
  8
0
  0
POLYLINE
  5
BFB
100
AcDbEntity
  8
0
 62
     7
100
AcDb2dPolyline
 66
     1
 10
0.0
 20
0.0
 30
0.0
 71
    11
  0
VERTEX
  5
BFC
100
AcDbEntity
  8
0
100
AcDbVertex
100
AcDb2dVertex
 10
909.881653
 20
3027.232666
 30
0.0
  0
VERTEX
  5
BFD
100
AcDbEntity
  8
0
100
AcDbVertex
100
AcDb2dVertex
 10
908.666077
 20
3027.022705
 30
0.0
  0
VERTEX
  5
BFE
100
AcDbEntity
  8
0
100
AcDbVertex
100
AcDb2dVertex
 10
907.545654
 20
3026.405273
 30
0.0
  0
VERTEX
  5
BFF
100
AcDbEntity
  8
0
100
AcDbVertex
100
AcDb2dVertex
 10
906.610352
 20
3025.413086
 30
0.0
  0
VERTEX
  5
C00
100
AcDbEntity
  8
0
100
AcDbVertex
100
AcDb2dVertex
 10
905.95282
 20
3024.111816
 30
0.0
  0
VERTEX
  5
C01
100
AcDbEntity
  8
0
100
AcDbVertex
100
AcDb2dVertex
 10
905.654175
 20
3022.61084
 30
0.0
  0
VERTEX
  5
C02
100
AcDbEntity
  8
0
100
AcDbVertex
100
AcDb2dVertex
 10
905.760132
 20
3021.060791
 30
0.0
  0
VERTEX
  5
C03
100
AcDbEntity
  8
0
100
AcDbVertex
100
AcDb2dVertex
 10
906.262695
 20
3019.62793
 30
0.0
  0
VERTEX
  5
C04
100
AcDbEntity
  8
0
100
AcDbVertex
100
AcDb2dVertex
 10
907.09906
 20
3018.460449
 30
0.0
  0
VERTEX
  5
C05
100
AcDbEntity
  8
0
100
AcDbVertex
100
AcDb2dVertex
 10
908.171021
 20
3017.657715
 30
0.0
  0
VERTEX
  5
C06
100
AcDbEntity
  8
0
100
AcDbVertex
100
AcDb2dVertex
 10
909.881653
 20
3017.232666
 30
0.0
  0
SEQEND
  5
C07
100
AcDbEntity
  8
0
  0
POLYLINE
  5
C08
100
AcDbEntity
  8
0
 62
     7
100
AcDb2dPolyline
 66
     1
 10
0.0
 20
0.0
 30
0.0
 71
     6
  0
VERTEX
  5
C09
100
AcDbEntity
  8
0
100
AcDbVertex
100
AcDb2dVertex
 10
914.121338
 20
3022.232666
 30
0.0
  0
VERTEX
  5
C0A
100
AcDbEntity
  8
0
100
AcDbVertex
100
AcDb2dVertex
 10
913.916077
 20
3023.769531
 30
0.0
  0
VERTEX
  5
C0B
100
AcDbEntity
  8
0
100
AcDbVertex
100
AcDb2dVertex
 10
913.324951
 20
3025.149902
 30
0.0
  0
VERTEX
  5
C0C
100
AcDbEntity
  8
0
100
AcDbVertex
100
AcDb2dVertex
 10
912.42157
 20
3026.23584
 30
0.0
  0
VERTEX
  5
C0D
100
AcDbEntity
  8
0
100
AcDbVertex
100
AcDb2dVertex
 10
911.308838
 20
3026.940918
 30
0.0
  0
VERTEX
  5
C0E
100
AcDbEntity
  8
0
100
AcDbVertex
100
AcDb2dVertex
 10
909.881653
 20
3027.232666
 30
0.0
  0
SEQEND
  5
C0F
100
AcDbEntity
  8
0
  0
POLYLINE
  5
C10
100
AcDbEntity
  8
0
 62
     7
100
AcDb2dPolyline
 66
     1
 10
0.0
 20
0.0
 30
0.0
 71
     6
  0
VERTEX
  5
C11
100
AcDbEntity
  8
0
100
AcDbVertex
100
AcDb2dVertex
 10
909.881653
 20
3017.232666
 30
0.0
  0
VERTEX
  5
C12
100
AcDbEntity
  8
0
100
AcDbVertex
100
AcDb2dVertex
 10
911.097351
 20
3017.442627
 30
0.0
  0
VERTEX
  5
C13
100
AcDbEntity
  8
0
100
AcDbVertex
100
AcDb2dVertex
 10
912.217712
 20
3018.060059
 30
0.0
  0
VERTEX
  5
C14
100
AcDbEntity
  8
0
100
AcDbVertex
100
AcDb2dVertex
 10
913.153015
 20
3019.052002
 30
0.0
  0
VERTEX
  5
C15
100
AcDbEntity
  8
0
100
AcDbVertex
100
AcDb2dVertex
 10
913.810486
 20
3020.353271
 30
0.0
  0
VERTEX
  5
C16
100
AcDbEntity
  8
0
100
AcDbVertex
100
AcDb2dVertex
 10
914.121338
 20
3022.232666
 30
0.0
  0
SEQEND
  5
C17
100
AcDbEntity
  8
0
  0
LINE
  5
C18
100
AcDbEntity
  8
0
 62
     7
100
AcDbLine
 10
1562.286987
 20
3556.232666
 30
0.0
 11
846.286865
 21
3556.232666
 31
0.0
210
0.0
220
0.0
230
1.0
  0
LINE
  5
C19
100
AcDbEntity
  8
0
 62
     7
 48
0.225
100
AcDbLine
 10
1571.287109
 20
3547.232666
 30
0.0
 11
1571.287109
 21
3538.232666
 31
0.0
210
0.0
220
0.0
230
1.0
  0
LINE
  5
C1A
100
AcDbEntity
  8
0
 62
     7
 48
0.225
100
AcDbLine
 10
846.286865
 20
3547.232666
 30
0.0
 11
846.286865
 21
3556.232666
 31
0.0
210
0.0
220
0.0
230
1.0
  0
LINE
  5
C1B
100
AcDbEntity
  8
0
 62
     7
 48
0.225
100
AcDbLine
 10
846.286865
 20
3547.232666
 30
0.0
 11
846.286865
 21
3538.232666
 31
0.0
210
0.0
220
0.0
230
1.0
  0
ARC
  5
C1C
100
AcDbEntity
  8
0
 62
     7
100
AcDbCircle
 10
1562.286987
 20
3547.232666
 30
0.0
 40
9.000001
210
0.0
220
0.0
230
1.0
100
AcDbArc
 50
0.0
 51
89.999996
  0
LINE
  5
C1D
100
AcDbEntity
  8
0
 62
     7
100
AcDbLine
 10
1215.286865
 20
2481.232422
 30
0.0
 11
1151.786865
 21
2481.232422
 31
0.0
210
0.0
220
0.0
230
1.0
  0
LINE
  5
C1E
100
AcDbEntity
  8
0
 62
     7
100
AcDbLine
 10
1151.786865
 20
2481.232422
 30
0.0
 11
1088.286865
 21
2481.232422
 31
0.0
210
0.0
220
0.0
230
1.0
  0
LINE
  5
C1F
100
AcDbEntity
  8
0
 62
     7
100
AcDbLine
 10
1210.286865
 20
2476.232422
 30
0.0
 11
1151.786865
 21
2476.232422
 31
0.0
210
0.0
220
0.0
230
1.0
  0
LINE
  5
C20
100
AcDbEntity
  8
0
 62
     7
100
AcDbLine
 10
1151.786865
 20
2476.232422
 30
0.0
 11
1093.286865
 21
2476.232422
 31
0.0
210
0.0
220
0.0
230
1.0
  0
LINE
  5
C21
100
AcDbEntity
  8
0
 62
     7
 48
0.175
100
AcDbLine
 10
1215.286865
 20
2481.232422
 30
0.0
 11
1215.286865
 21
2488.232422
 31
0.0
210
0.0
220
0.0
230
1.0
  0
LINE
  5
C22
100
AcDbEntity
  8
0
 62
     7
 48
0.175
100
AcDbLine
 10
1088.286865
 20
2481.232422
 30
0.0
 11
1088.286865
 21
2488.232422
 31
0.0
210
0.0
220
0.0
230
1.0
  0
LINE
  5
C23
100
AcDbEntity
  8
0
 62
     7
 48
0.176777
100
AcDbLine
 10
1210.286865
 20
2476.232422
 30
0.0
 11
1215.286865
 21
2481.232422
 31
0.0
210
0.0
220
0.0
230
1.0
  0
LINE
  5
C24
100
AcDbEntity
  8
0
 62
     7
 48
0.176777
100
AcDbLine
 10
1093.286865
 20
2476.232422
 30
0.0
 11
1088.286865
 21
2481.232422
 31
0.0
210
0.0
220
0.0
230
1.0
  0
LINE
  5
C25
100
AcDbEntity
  8
0
 62
     7
100
AcDbLine
 10
983.286865
 20
2481.232422
 30
0.0
 11
919.786865
 21
2481.232422
 31
0.0
210
0.0
220
0.0
230
1.0
  0
LINE
  5
C26
100
AcDbEntity
  8
0
 62
     7
100
AcDbLine
 10
919.786865
 20
2481.232422
 30
0.0
 11
856.286865
 21
2481.232422
 31
0.0
210
0.0
220
0.0
230
1.0
  0
LINE
  5
C27
100
AcDbEntity
  8
0
 62
     7
100
AcDbLine
 10
978.286865
 20
2476.232422
 30
0.0
 11
919.786865
 21
2476.232422
 31
0.0
210
0.0
220
0.0
230
1.0
  0
LINE
  5
C28
100
AcDbEntity
  8
0
 62
     7
100
AcDbLine
 10
919.786865
 20
2476.232422
 30
0.0
 11
861.286865
 21
2476.232422
 31
0.0
210
0.0
220
0.0
230
1.0
  0
LINE
  5
C29
100
AcDbEntity
  8
0
 62
     7
 48
0.175
100
AcDbLine
 10
983.286865
 20
2481.232422
 30
0.0
 11
983.286865
 21
2488.232422
 31
0.0
210
0.0
220
0.0
230
1.0
  0
LINE
  5
C2A
100
AcDbEntity
  8
0
 62
     7
 48
0.175
100
AcDbLine
 10
856.286865
 20
2481.232422
 30
0.0
 11
856.286865
 21
2488.232422
 31
0.0
210
0.0
220
0.0
230
1.0
  0
LINE
  5
C2B
100
AcDbEntity
  8
0
 62
     7
 48
0.176777
100
AcDbLine
 10
978.286865
 20
2476.232422
 30
0.0
 11
983.286865
 21
2481.232422
 31
0.0
210
0.0
220
0.0
230
1.0
  0
LINE
  5
C2C
100
AcDbEntity
  8
0
 62
     7
 48
0.176777
100
AcDbLine
 10
861.286865
 20
2476.232422
 30
0.0
 11
856.286865
 21
2481.232422
 31
0.0
210
0.0
220
0.0
230
1.0
  0
LINE
  5
C2D
100
AcDbEntity
  8
0
 62
     7
100
AcDbLine
 10
1561.287109
 20
2481.232422
 30
0.0
 11
1497.786987
 21
2481.232422
 31
0.0
210
0.0
220
0.0
230
1.0
  0
LINE
  5
C2E
100
AcDbEntity
  8
0
 62
     7
100
AcDbLine
 10
1497.786987
 20
2481.232422
 30
0.0
 11
1434.286987
 21
2481.232422
 31
0.0
210
0.0
220
0.0
230
1.0
  0
LINE
  5
C2F
100
AcDbEntity
  8
0
 62
     7
100
AcDbLine
 10
1556.287109
 20
2476.232422
 30
0.0
 11
1497.786987
 21
2476.232422
 31
0.0
210
0.0
220
0.0
230
1.0
  0
LINE
  5
C30
100
AcDbEntity
  8
0
 62
     7
100
AcDbLine
 10
1497.786987
 20
2476.232422
 30
0.0
 11
1439.286987
 21
2476.232422
 31
0.0
210
0.0
220
0.0
230
1.0
  0
LINE
  5
C31
100
AcDbEntity
  8
0
 62
     7
 48
0.175
100
AcDbLine
 10
1561.287109
 20
2481.232422
 30
0.0
 11
1561.287109
 21
2488.232422
 31
0.0
210
0.0
220
0.0
230
1.0
  0
LINE
  5
C32
100
AcDbEntity
  8
0
 62
     7
 48
0.175
100
AcDbLine
 10
1434.286987
 20
2481.232422
 30
0.0
 11
1434.286987
 21
2488.232422
 31
0.0
210
0.0
220
0.0
230
1.0
  0
LINE
  5
C33
100
AcDbEntity
  8
0
 62
     7
 48
0.176777
100
AcDbLine
 10
1556.287109
 20
2476.232422
 30
0.0
 11
1561.287109
 21
2481.232422
 31
0.0
210
0.0
220
0.0
230
1.0
  0
LINE
  5
C34
100
AcDbEntity
  8
0
 62
     7
 48
0.176777
100
AcDbLine
 10
1439.286987
 20
2476.232422
 30
0.0
 11
1434.286987
 21
2481.232422
 31
0.0
210
0.0
220
0.0
230
1.0
  0
LINE
  5
C35
100
AcDbEntity
  8
0
 62
     7
 48
0.007501
100
AcDbLine
 10
845.986816
 20
2972.232666
 30
0.0
 11
846.286865
 21
2972.232666
 31
0.0
210
0.0
220
0.0
230
1.0
  0
LINE
  5
C36
100
AcDbEntity
  8
0
 62
     7
 48
0.007501
100
AcDbLine
 10
845.986816
 20
3072.232666
 30
0.0
 11
846.286865
 21
3072.232666
 31
0.0
210
0.0
220
0.0
230
1.0
  0
LINE
  5
C37
100
AcDbEntity
  8
0
 62
     7
100
AcDbLine
 10
845.986816
 20
3072.232666
 30
0.0
 11
845.986816
 21
2972.232666
 31
0.0
210
0.0
220
0.0
230
1.0
  0
POLYLINE
  5
C38
100
AcDbEntity
  8
0
 62
     7
100
AcDb2dPolyline
 66
     1
 10
0.0
 20
0.0
 30
0.0
 71
    10
  0
VERTEX
  5
C39
100
AcDbEntity
  8
0
100
AcDbVertex
100
AcDb2dVertex
 10
5348.169922
 20
3784.161621
 30
0.0
  0
VERTEX
  5
C3A
100
AcDbEntity
  8
0
100
AcDbVertex
100
AcDb2dVertex
 10
5354.108887
 20
3775.761719
 30
0.0
  0
VERTEX
  5
C3B
100
AcDbEntity
  8
0
100
AcDbVertex
100
AcDb2dVertex
 10
5371.925781
 20
3775.761719
 30
0.0
  0
VERTEX
  5
C3C
100
AcDbEntity
  8
0
100
AcDbVertex
100
AcDb2dVertex
 10
5380.833496
 20
3788.361572
 30
0.0
  0
VERTEX
  5
C3D
100
AcDbEntity
  8
0
100
AcDbVertex
100
AcDb2dVertex
 10
5380.833496
 20
3796.761475
 30
0.0
  0
VERTEX
  5
C3E
100
AcDbEntity
  8
0
100
AcDbVertex
100
AcDb2dVertex
 10
5371.925781
 20
3809.361572
 30
0.0
  0
VERTEX
  5
C3F
100
AcDbEntity
  8
0
100
AcDbVertex
100
AcDb2dVertex
 10
5357.078125
 20
3809.361572
 30
0.0
  0
VERTEX
  5
C40
100
AcDbEntity
  8
0
100
AcDbVertex
100
AcDb2dVertex
 10
5348.169922
 20
3800.96167
 30
0.0
  0
VERTEX
  5
C41
100
AcDbEntity
  8
0
100
AcDbVertex
100
AcDb2dVertex
 10
5348.169922
 20
3830.361572
 30
0.0
  0
VERTEX
  5
C42
100
AcDbEntity
  8
0
100
AcDbVertex
100
AcDb2dVertex
 10
5377.864258
 20
3830.361572
 30
0.0
  0
SEQEND
  5
C43
100
AcDbEntity
  8
0
  0
LINE
  5
C44
100
AcDbEntity
  8
0
 62
     7
100
AcDbLine
 10
5396.40332
 20
3775.761719
 30
0.0
 11
5432.035645
 21
3826.161621
 31
0.0
210
0.0
220
0.0
230
1.0
  0
LINE
  5
C45
100
AcDbEntity
  8
0
 62
     7
100
AcDbLine
 10
5432.035645
 20
3775.761719
 30
0.0
 11
5396.40332
 21
3826.161621
 31
0.0
210
0.0
220
0.0
230
1.0
  0
POLYLINE
  5
C46
100
AcDbEntity
  8
0
 62
     7
100
AcDb2dPolyline
 66
     1
 10
0.0
 20
0.0
 30
0.0
 71
     5
  0
VERTEX
  5
C47
100
AcDbEntity
  8
0
100
AcDbVertex
100
AcDb2dVertex
 10
5450.574219
 20
3775.761719
 30
0.0
  0
VERTEX
  5
C48
100
AcDbEntity
  8
0
100
AcDbVertex
100
AcDb2dVertex
 10
5450.574219
 20
3830.361572
 30
0.0
  0
VERTEX
  5
C49
100
AcDbEntity
  8
0
100
AcDbVertex
100
AcDb2dVertex
 10
5471.360352
 20
3779.96167
 30
0.0
  0
VERTEX
  5
C4A
100
AcDbEntity
  8
0
100
AcDbVertex
100
AcDb2dVertex
 10
5492.145996
 20
3830.361572
 30
0.0
  0
VERTEX
  5
C4B
100
AcDbEntity
  8
0
100
AcDbVertex
100
AcDb2dVertex
 10
5492.145996
 20
3775.761719
 30
0.0
  0
SEQEND
  5
C4C
100
AcDbEntity
  8
0
  0
POLYLINE
  5
C4D
100
AcDbEntity
  8
0
 62
     7
100
AcDb2dPolyline
 66
     1
 10
0.0
 20
0.0
 30
0.0
 71
    16
  0
VERTEX
  5
C4E
100
AcDbEntity
  8
0
100
AcDbVertex
100
AcDb2dVertex
 10
5510.68457
 20
3805.161377
 30
0.0
  0
VERTEX
  5
C4F
100
AcDbEntity
  8
0
100
AcDbVertex
100
AcDb2dVertex
 10
5504.746094
 20
3796.761475
 30
0.0
  0
VERTEX
  5
C50
100
AcDbEntity
  8
0
100
AcDbVertex
100
AcDb2dVertex
 10
5504.746094
 20
3784.161621
 30
0.0
  0
VERTEX
  5
C51
100
AcDbEntity
  8
0
100
AcDbVertex
100
AcDb2dVertex
 10
5510.68457
 20
3775.761719
 30
0.0
  0
VERTEX
  5
C52
100
AcDbEntity
  8
0
100
AcDbVertex
100
AcDb2dVertex
 10
5531.470703
 20
3775.761719
 30
0.0
  0
VERTEX
  5
C53
100
AcDbEntity
  8
0
100
AcDbVertex
100
AcDb2dVertex
 10
5537.409668
 20
3784.161621
 30
0.0
  0
VERTEX
  5
C54
100
AcDbEntity
  8
0
100
AcDbVertex
100
AcDb2dVertex
 10
5537.409668
 20
3796.761475
 30
0.0
  0
VERTEX
  5
C55
100
AcDbEntity
  8
0
100
AcDbVertex
100
AcDb2dVertex
 10
5531.470703
 20
3805.161377
 30
0.0
  0
VERTEX
  5
C56
100
AcDbEntity
  8
0
100
AcDbVertex
100
AcDb2dVertex
 10
5510.68457
 20
3805.161377
 30
0.0
  0
VERTEX
  5
C57
100
AcDbEntity
  8
0
100
AcDbVertex
100
AcDb2dVertex
 10
5504.746094
 20
3813.561768
 30
0.0
  0
VERTEX
  5
C58
100
AcDbEntity
  8
0
100
AcDbVertex
100
AcDb2dVertex
 10
5504.746094
 20
3821.96167
 30
0.0
  0
VERTEX
  5
C59
100
AcDbEntity
  8
0
100
AcDbVertex
100
AcDb2dVertex
 10
5510.68457
 20
3830.361572
 30
0.0
  0
VERTEX
  5
C5A
100
AcDbEntity
  8
0
100
AcDbVertex
100
AcDb2dVertex
 10
5531.470703
 20
3830.361572
 30
0.0
  0
VERTEX
  5
C5B
100
AcDbEntity
  8
0
100
AcDbVertex
100
AcDb2dVertex
 10
5537.409668
 20
3821.96167
 30
0.0
  0
VERTEX
  5
C5C
100
AcDbEntity
  8
0
100
AcDbVertex
100
AcDb2dVertex
 10
5537.409668
 20
3813.561768
 30
0.0
  0
VERTEX
  5
C5D
100
AcDbEntity
  8
0
100
AcDbVertex
100
AcDb2dVertex
 10
5531.470703
 20
3805.161377
 30
0.0
  0
SEQEND
  5
C5E
100
AcDbEntity
  8
0
  0
POLYLINE
  5
C5F
100
AcDbEntity
  8
0
 62
     7
100
AcDb2dPolyline
 66
     1
 10
0.0
 20
0.0
 30
0.0
 71
     3
  0
VERTEX
  5
C60
100
AcDbEntity
  8
0
100
AcDbVertex
100
AcDb2dVertex
 10
5205.102051
 20
3499.183105
 30
0.0
  0
VERTEX
  5
C61
100
AcDbEntity
  8
0
100
AcDbVertex
100
AcDb2dVertex
 10
5345.17041
 20
3770.511475
 30
0.0
  0
VERTEX
  5
C62
100
AcDbEntity
  8
0
100
AcDbVertex
100
AcDb2dVertex
 10
5537.409668
 20
3770.511475
 30
0.0
  0
SEQEND
  5
C63
100
AcDbEntity
  8
0
  0
POLYLINE
  5
C64
100
AcDbEntity
  8
0
 62
     7
100
AcDb2dPolyline
 66
     1
 10
0.0
 20
0.0
 30
0.0
 71
     3
  0
VERTEX
  5
C65
100
AcDbEntity
  8
0
100
AcDbVertex
100
AcDb2dVertex
 10
5213.625977
 20
3538.264404
 30
0.0
  0
VERTEX
  5
C66
100
AcDbEntity
  8
0
100
AcDbVertex
100
AcDb2dVertex
 10
5205.102051
 20
3499.183105
 30
0.0
  0
VERTEX
  5
C67
100
AcDbEntity
  8
0
100
AcDbVertex
100
AcDb2dVertex
 10
5232.024414
 20
3528.766602
 30
0.0
  0
SEQEND
  5
C68
100
AcDbEntity
  8
0
  0
LINE
  5
C69
100
AcDbEntity
  8
0
 62
     7
100
AcDbLine
 10
4552.105469
 20
2488.232422
 30
0.0
 11
5268.105469
 21
2488.232422
 31
0.0
210
0.0
220
0.0
230
1.0
  0
LINE
  5
C6A
100
AcDbEntity
  8
0
 62
     7
 48
0.224994
100
AcDbLine
 10
4543.105469
 20
2497.232666
 30
0.0
 11
4543.105469
 21
2506.232422
 31
0.0
210
0.0
220
0.0
230
1.0
  0
LINE
  5
C6B
100
AcDbEntity
  8
0
 62
     7
 48
0.225006
100
AcDbLine
 10
5268.105469
 20
2497.232666
 30
0.0
 11
5268.105469
 21
2488.232422
 31
0.0
210
0.0
220
0.0
230
1.0
  0
LINE
  5
C6C
100
AcDbEntity
  8
0
 62
     7
 48
0.224994
100
AcDbLine
 10
5268.105469
 20
2497.232666
 30
0.0
 11
5268.105469
 21
2506.232422
 31
0.0
210
0.0
220
0.0
230
1.0
  0
ARC
  5
C6D
100
AcDbEntity
  8
0
 62
     7
100
AcDbCircle
 10
4552.105469
 20
2497.232666
 30
0.0
 40
9.000001
210
0.0
220
0.0
230
1.0
100
AcDbArc
 50
180.000009
 51
269.999997
  0
LINE
  5
C6E
100
AcDbEntity
  8
0
 62
     7
100
AcDbLine
 10
4543.105469
 20
3538.232666
 30
0.0
 11
4543.105469
 21
2506.232422
 31
0.0
210
0.0
220
0.0
230
1.0
  0
LINE
  5
C6F
100
AcDbEntity
  8
0
 62
     7
100
AcDbLine
 10
5268.105469
 20
3538.232666
 30
0.0
 11
5268.105469
 21
2506.232422
 31
0.0
210
0.0
220
0.0
230
1.0
  0
POLYLINE
  5
C70
100
AcDbEntity
  8
0
 62
     7
100
AcDb2dPolyline
 66
     1
 10
0.0
 20
0.0
 30
0.0
 71
    11
  0
VERTEX
  5
C71
100
AcDbEntity
  8
0
100
AcDbVertex
100
AcDb2dVertex
 10
5204.510254
 20
3489.23291
 30
0.0
  0
VERTEX
  5
C72
100
AcDbEntity
  8
0
100
AcDbVertex
100
AcDb2dVertex
 10
5205.726074
 20
3489.442871
 30
0.0
  0
VERTEX
  5
C73
100
AcDbEntity
  8
0
100
AcDbVertex
100
AcDb2dVertex
 10
5206.846191
 20
3490.060059
 30
0.0
  0
VERTEX
  5
C74
100
AcDbEntity
  8
0
100
AcDbVertex
100
AcDb2dVertex
 10
5207.781738
 20
3491.052246
 30
0.0
  0
VERTEX
  5
C75
100
AcDbEntity
  8
0
100
AcDbVertex
100
AcDb2dVertex
 10
5208.439453
 20
3492.353516
 30
0.0
  0
VERTEX
  5
C76
100
AcDbEntity
  8
0
100
AcDbVertex
100
AcDb2dVertex
 10
5208.737793
 20
3493.854736
 30
0.0
  0
VERTEX
  5
C77
100
AcDbEntity
  8
0
100
AcDbVertex
100
AcDb2dVertex
 10
5208.632324
 20
3495.404785
 30
0.0
  0
VERTEX
  5
C78
100
AcDbEntity
  8
0
100
AcDbVertex
100
AcDb2dVertex
 10
5208.129395
 20
3496.837402
 30
0.0
  0
VERTEX
  5
C79
100
AcDbEntity
  8
0
100
AcDbVertex
100
AcDb2dVertex
 10
5207.292969
 20
3498.005127
 30
0.0
  0
VERTEX
  5
C7A
100
AcDbEntity
  8
0
100
AcDbVertex
100
AcDb2dVertex
 10
5206.221191
 20
3498.807617
 30
0.0
  0
VERTEX
  5
C7B
100
AcDbEntity
  8
0
100
AcDbVertex
100
AcDb2dVertex
 10
5204.510254
 20
3499.23291
 30
0.0
  0
SEQEND
  5
C7C
100
AcDbEntity
  8
0
  0
POLYLINE
  5
C7D
100
AcDbEntity
  8
0
 62
     7
100
AcDb2dPolyline
 66
     1
 10
0.0
 20
0.0
 30
0.0
 71
     6
  0
VERTEX
  5
C7E
100
AcDbEntity
  8
0
100
AcDbVertex
100
AcDb2dVertex
 10
5200.270996
 20
3494.23291
 30
0.0
  0
VERTEX
  5
C7F
100
AcDbEntity
  8
0
100
AcDbVertex
100
AcDb2dVertex
 10
5200.476074
 20
3492.696045
 30
0.0
  0
VERTEX
  5
C80
100
AcDbEntity
  8
0
100
AcDbVertex
100
AcDb2dVertex
 10
5201.067383
 20
3491.315674
 30
0.0
  0
VERTEX
  5
C81
100
AcDbEntity
  8
0
100
AcDbVertex
100
AcDb2dVertex
 10
5201.970703
 20
3490.229248
 30
0.0
  0
VERTEX
  5
C82
100
AcDbEntity
  8
0
100
AcDbVertex
100
AcDb2dVertex
 10
5203.083496
 20
3489.524658
 30
0.0
  0
VERTEX
  5
C83
100
AcDbEntity
  8
0
100
AcDbVertex
100
AcDb2dVertex
 10
5204.510254
 20
3489.23291
 30
0.0
  0
SEQEND
  5
C84
100
AcDbEntity
  8
0
  0
POLYLINE
  5
C85
100
AcDbEntity
  8
0
 62
     7
100
AcDb2dPolyline
 66
     1
 10
0.0
 20
0.0
 30
0.0
 71
     6
  0
VERTEX
  5
C86
100
AcDbEntity
  8
0
100
AcDbVertex
100
AcDb2dVertex
 10
5204.510254
 20
3499.23291
 30
0.0
  0
VERTEX
  5
C87
100
AcDbEntity
  8
0
100
AcDbVertex
100
AcDb2dVertex
 10
5203.294434
 20
3499.022949
 30
0.0
  0
VERTEX
  5
C88
100
AcDbEntity
  8
0
100
AcDbVertex
100
AcDb2dVertex
 10
5202.174805
 20
3498.405518
 30
0.0
  0
VERTEX
  5
C89
100
AcDbEntity
  8
0
100
AcDbVertex
100
AcDb2dVertex
 10
5201.23877
 20
3497.41333
 30
0.0
  0
VERTEX
  5
C8A
100
AcDbEntity
  8
0
100
AcDbVertex
100
AcDb2dVertex
 10
5200.581543
 20
3496.112061
 30
0.0
  0
VERTEX
  5
C8B
100
AcDbEntity
  8
0
100
AcDbVertex
100
AcDb2dVertex
 10
5200.270996
 20
3494.23291
 30
0.0
  0
SEQEND
  5
C8C
100
AcDbEntity
  8
0
  0
POLYLINE
  5
C8D
100
AcDbEntity
  8
0
 62
     7
100
AcDb2dPolyline
 66
     1
 10
0.0
 20
0.0
 30
0.0
 71
    11
  0
VERTEX
  5
C8E
100
AcDbEntity
  8
0
100
AcDbVertex
100
AcDb2dVertex
 10
5204.510254
 20
2781.232666
 30
0.0
  0
VERTEX
  5
C8F
100
AcDbEntity
  8
0
100
AcDbVertex
100
AcDb2dVertex
 10
5205.726074
 20
2781.442627
 30
0.0
  0
VERTEX
  5
C90
100
AcDbEntity
  8
0
100
AcDbVertex
100
AcDb2dVertex
 10
5206.846191
 20
2782.059814
 30
0.0
  0
VERTEX
  5
C91
100
AcDbEntity
  8
0
100
AcDbVertex
100
AcDb2dVertex
 10
5207.781738
 20
2783.052002
 30
0.0
  0
VERTEX
  5
C92
100
AcDbEntity
  8
0
100
AcDbVertex
100
AcDb2dVertex
 10
5208.439453
 20
2784.353271
 30
0.0
  0
VERTEX
  5
C93
100
AcDbEntity
  8
0
100
AcDbVertex
100
AcDb2dVertex
 10
5208.737793
 20
2785.854492
 30
0.0
  0
VERTEX
  5
C94
100
AcDbEntity
  8
0
100
AcDbVertex
100
AcDb2dVertex
 10
5208.632324
 20
2787.404541
 30
0.0
  0
VERTEX
  5
C95
100
AcDbEntity
  8
0
100
AcDbVertex
100
AcDb2dVertex
 10
5208.129395
 20
2788.837158
 30
0.0
  0
VERTEX
  5
C96
100
AcDbEntity
  8
0
100
AcDbVertex
100
AcDb2dVertex
 10
5207.292969
 20
2790.004883
 30
0.0
  0
VERTEX
  5
C97
100
AcDbEntity
  8
0
100
AcDbVertex
100
AcDb2dVertex
 10
5206.221191
 20
2790.807373
 30
0.0
  0
VERTEX
  5
C98
100
AcDbEntity
  8
0
100
AcDbVertex
100
AcDb2dVertex
 10
5204.510254
 20
2791.232666
 30
0.0
  0
SEQEND
  5
C99
100
AcDbEntity
  8
0
  0
POLYLINE
  5
C9A
100
AcDbEntity
  8
0
 62
     7
100
AcDb2dPolyline
 66
     1
 10
0.0
 20
0.0
 30
0.0
 71
     6
  0
VERTEX
  5
C9B
100
AcDbEntity
  8
0
100
AcDbVertex
100
AcDb2dVertex
 10
5200.270996
 20
2786.232666
 30
0.0
  0
VERTEX
  5
C9C
100
AcDbEntity
  8
0
100
AcDbVertex
100
AcDb2dVertex
 10
5200.476074
 20
2784.695801
 30
0.0
  0
VERTEX
  5
C9D
100
AcDbEntity
  8
0
100
AcDbVertex
100
AcDb2dVertex
 10
5201.067383
 20
2783.31543
 30
0.0
  0
VERTEX
  5
C9E
100
AcDbEntity
  8
0
100
AcDbVertex
100
AcDb2dVertex
 10
5201.970703
 20
2782.229004
 30
0.0
  0
VERTEX
  5
C9F
100
AcDbEntity
  8
0
100
AcDbVertex
100
AcDb2dVertex
 10
5203.083496
 20
2781.524414
 30
0.0
  0
VERTEX
  5
CA0
100
AcDbEntity
  8
0
100
AcDbVertex
100
AcDb2dVertex
 10
5204.510254
 20
2781.232666
 30
0.0
  0
SEQEND
  5
CA1
100
AcDbEntity
  8
0
  0
POLYLINE
  5
CA2
100
AcDbEntity
  8
0
 62
     7
100
AcDb2dPolyline
 66
     1
 10
0.0
 20
0.0
 30
0.0
 71
     6
  0
VERTEX
  5
CA3
100
AcDbEntity
  8
0
100
AcDbVertex
100
AcDb2dVertex
 10
5204.510254
 20
2791.232666
 30
0.0
  0
VERTEX
  5
CA4
100
AcDbEntity
  8
0
100
AcDbVertex
100
AcDb2dVertex
 10
5203.294434
 20
2791.022705
 30
0.0
  0
VERTEX
  5
CA5
100
AcDbEntity
  8
0
100
AcDbVertex
100
AcDb2dVertex
 10
5202.174805
 20
2790.405273
 30
0.0
  0
VERTEX
  5
CA6
100
AcDbEntity
  8
0
100
AcDbVertex
100
AcDb2dVertex
 10
5201.23877
 20
2789.413086
 30
0.0
  0
VERTEX
  5
CA7
100
AcDbEntity
  8
0
100
AcDbVertex
100
AcDb2dVertex
 10
5200.581543
 20
2788.111816
 30
0.0
  0
VERTEX
  5
CA8
100
AcDbEntity
  8
0
100
AcDbVertex
100
AcDb2dVertex
 10
5200.270996
 20
2786.232666
 30
0.0
  0
SEQEND
  5
CA9
100
AcDbEntity
  8
0
  0
POLYLINE
  5
CAA
100
AcDbEntity
  8
0
 62
     7
100
AcDb2dPolyline
 66
     1
 10
0.0
 20
0.0
 30
0.0
 71
    11
  0
VERTEX
  5
CAB
100
AcDbEntity
  8
0
100
AcDbVertex
100
AcDb2dVertex
 10
5204.510254
 20
2545.232666
 30
0.0
  0
VERTEX
  5
CAC
100
AcDbEntity
  8
0
100
AcDbVertex
100
AcDb2dVertex
 10
5205.726074
 20
2545.442627
 30
0.0
  0
VERTEX
  5
CAD
100
AcDbEntity
  8
0
100
AcDbVertex
100
AcDb2dVertex
 10
5206.846191
 20
2546.060059
 30
0.0
  0
VERTEX
  5
CAE
100
AcDbEntity
  8
0
100
AcDbVertex
100
AcDb2dVertex
 10
5207.781738
 20
2547.052002
 30
0.0
  0
VERTEX
  5
CAF
100
AcDbEntity
  8
0
100
AcDbVertex
100
AcDb2dVertex
 10
5208.439453
 20
2548.353516
 30
0.0
  0
VERTEX
  5
CB0
100
AcDbEntity
  8
0
100
AcDbVertex
100
AcDb2dVertex
 10
5208.737793
 20
2549.854492
 30
0.0
  0
VERTEX
  5
CB1
100
AcDbEntity
  8
0
100
AcDbVertex
100
AcDb2dVertex
 10
5208.632324
 20
2551.404541
 30
0.0
  0
VERTEX
  5
CB2
100
AcDbEntity
  8
0
100
AcDbVertex
100
AcDb2dVertex
 10
5208.129395
 20
2552.837402
 30
0.0
  0
VERTEX
  5
CB3
100
AcDbEntity
  8
0
100
AcDbVertex
100
AcDb2dVertex
 10
5207.292969
 20
2554.005127
 30
0.0
  0
VERTEX
  5
CB4
100
AcDbEntity
  8
0
100
AcDbVertex
100
AcDb2dVertex
 10
5206.221191
 20
2554.807617
 30
0.0
  0
VERTEX
  5
CB5
100
AcDbEntity
  8
0
100
AcDbVertex
100
AcDb2dVertex
 10
5204.510254
 20
2555.232666
 30
0.0
  0
SEQEND
  5
CB6
100
AcDbEntity
  8
0
  0
POLYLINE
  5
CB7
100
AcDbEntity
  8
0
 62
     7
100
AcDb2dPolyline
 66
     1
 10
0.0
 20
0.0
 30
0.0
 71
     6
  0
VERTEX
  5
CB8
100
AcDbEntity
  8
0
100
AcDbVertex
100
AcDb2dVertex
 10
5200.270996
 20
2550.232666
 30
0.0
  0
VERTEX
  5
CB9
100
AcDbEntity
  8
0
100
AcDbVertex
100
AcDb2dVertex
 10
5200.476074
 20
2548.695801
 30
0.0
  0
VERTEX
  5
CBA
100
AcDbEntity
  8
0
100
AcDbVertex
100
AcDb2dVertex
 10
5201.067383
 20
2547.31543
 30
0.0
  0
VERTEX
  5
CBB
100
AcDbEntity
  8
0
100
AcDbVertex
100
AcDb2dVertex
 10
5201.970703
 20
2546.229248
 30
0.0
  0
VERTEX
  5
CBC
100
AcDbEntity
  8
0
100
AcDbVertex
100
AcDb2dVertex
 10
5203.083496
 20
2545.524414
 30
0.0
  0
VERTEX
  5
CBD
100
AcDbEntity
  8
0
100
AcDbVertex
100
AcDb2dVertex
 10
5204.510254
 20
2545.232666
 30
0.0
  0
SEQEND
  5
CBE
100
AcDbEntity
  8
0
  0
POLYLINE
  5
CBF
100
AcDbEntity
  8
0
 62
     7
100
AcDb2dPolyline
 66
     1
 10
0.0
 20
0.0
 30
0.0
 71
     6
  0
VERTEX
  5
CC0
100
AcDbEntity
  8
0
100
AcDbVertex
100
AcDb2dVertex
 10
5204.510254
 20
2555.232666
 30
0.0
  0
VERTEX
  5
CC1
100
AcDbEntity
  8
0
100
AcDbVertex
100
AcDb2dVertex
 10
5203.294434
 20
2555.022705
 30
0.0
  0
VERTEX
  5
CC2
100
AcDbEntity
  8
0
100
AcDbVertex
100
AcDb2dVertex
 10
5202.174805
 20
2554.405029
 30
0.0
  0
VERTEX
  5
CC3
100
AcDbEntity
  8
0
100
AcDbVertex
100
AcDb2dVertex
 10
5201.23877
 20
2553.413086
 30
0.0
  0
VERTEX
  5
CC4
100
AcDbEntity
  8
0
100
AcDbVertex
100
AcDb2dVertex
 10
5200.581543
 20
2552.111816
 30
0.0
  0
VERTEX
  5
CC5
100
AcDbEntity
  8
0
100
AcDbVertex
100
AcDb2dVertex
 10
5200.270996
 20
2550.232666
 30
0.0
  0
SEQEND
  5
CC6
100
AcDbEntity
  8
0
  0
POLYLINE
  5
CC7
100
AcDbEntity
  8
0
 62
     7
100
AcDb2dPolyline
 66
     1
 10
0.0
 20
0.0
 30
0.0
 71
    11
  0
VERTEX
  5
CC8
100
AcDbEntity
  8
0
100
AcDbVertex
100
AcDb2dVertex
 10
5204.510254
 20
3263.232666
 30
0.0
  0
VERTEX
  5
CC9
100
AcDbEntity
  8
0
100
AcDbVertex
100
AcDb2dVertex
 10
5203.294434
 20
3263.022705
 30
0.0
  0
VERTEX
  5
CCA
100
AcDbEntity
  8
0
100
AcDbVertex
100
AcDb2dVertex
 10
5202.174805
 20
3262.405518
 30
0.0
  0
VERTEX
  5
CCB
100
AcDbEntity
  8
0
100
AcDbVertex
100
AcDb2dVertex
 10
5201.23877
 20
3261.41333
 30
0.0
  0
VERTEX
  5
CCC
100
AcDbEntity
  8
0
100
AcDbVertex
100
AcDb2dVertex
 10
5200.581543
 20
3260.112061
 30
0.0
  0
VERTEX
  5
CCD
100
AcDbEntity
  8
0
100
AcDbVertex
100
AcDb2dVertex
 10
5200.283203
 20
3258.61084
 30
0.0
  0
VERTEX
  5
CCE
100
AcDbEntity
  8
0
100
AcDbVertex
100
AcDb2dVertex
 10
5200.388672
 20
3257.060547
 30
0.0
  0
VERTEX
  5
CCF
100
AcDbEntity
  8
0
100
AcDbVertex
100
AcDb2dVertex
 10
5200.891602
 20
3255.628174
 30
0.0
  0
VERTEX
  5
CD0
100
AcDbEntity
  8
0
100
AcDbVertex
100
AcDb2dVertex
 10
5201.728027
 20
3254.460449
 30
0.0
  0
VERTEX
  5
CD1
100
AcDbEntity
  8
0
100
AcDbVertex
100
AcDb2dVertex
 10
5202.799805
 20
3253.657959
 30
0.0
  0
VERTEX
  5
CD2
100
AcDbEntity
  8
0
100
AcDbVertex
100
AcDb2dVertex
 10
5204.510254
 20
3253.232666
 30
0.0
  0
SEQEND
  5
CD3
100
AcDbEntity
  8
0
  0
POLYLINE
  5
CD4
100
AcDbEntity
  8
0
 62
     7
100
AcDb2dPolyline
 66
     1
 10
0.0
 20
0.0
 30
0.0
 71
     6
  0
VERTEX
  5
CD5
100
AcDbEntity
  8
0
100
AcDbVertex
100
AcDb2dVertex
 10
5208.75
 20
3258.232666
 30
0.0
  0
VERTEX
  5
CD6
100
AcDbEntity
  8
0
100
AcDbVertex
100
AcDb2dVertex
 10
5208.544922
 20
3259.769531
 30
0.0
  0
VERTEX
  5
CD7
100
AcDbEntity
  8
0
100
AcDbVertex
100
AcDb2dVertex
 10
5207.953613
 20
3261.149902
 30
0.0
  0
VERTEX
  5
CD8
100
AcDbEntity
  8
0
100
AcDbVertex
100
AcDb2dVertex
 10
5207.050293
 20
3262.236328
 30
0.0
  0
VERTEX
  5
CD9
100
AcDbEntity
  8
0
100
AcDbVertex
100
AcDb2dVertex
 10
5205.9375
 20
3262.940918
 30
0.0
  0
VERTEX
  5
CDA
100
AcDbEntity
  8
0
100
AcDbVertex
100
AcDb2dVertex
 10
5204.510254
 20
3263.232666
 30
0.0
  0
SEQEND
  5
CDB
100
AcDbEntity
  8
0
  0
POLYLINE
  5
CDC
100
AcDbEntity
  8
0
 62
     7
100
AcDb2dPolyline
 66
     1
 10
0.0
 20
0.0
 30
0.0
 71
     6
  0
VERTEX
  5
CDD
100
AcDbEntity
  8
0
100
AcDbVertex
100
AcDb2dVertex
 10
5204.510254
 20
3253.232666
 30
0.0
  0
VERTEX
  5
CDE
100
AcDbEntity
  8
0
100
AcDbVertex
100
AcDb2dVertex
 10
5205.726074
 20
3253.442627
 30
0.0
  0
VERTEX
  5
CDF
100
AcDbEntity
  8
0
100
AcDbVertex
100
AcDb2dVertex
 10
5206.846191
 20
3254.060059
 30
0.0
  0
VERTEX
  5
CE0
100
AcDbEntity
  8
0
100
AcDbVertex
100
AcDb2dVertex
 10
5207.781738
 20
3255.052246
 30
0.0
  0
VERTEX
  5
CE1
100
AcDbEntity
  8
0
100
AcDbVertex
100
AcDb2dVertex
 10
5208.439453
 20
3256.353516
 30
0.0
  0
VERTEX
  5
CE2
100
AcDbEntity
  8
0
100
AcDbVertex
100
AcDb2dVertex
 10
5208.75
 20
3258.232666
 30
0.0
  0
SEQEND
  5
CE3
100
AcDbEntity
  8
0
  0
POLYLINE
  5
CE4
100
AcDbEntity
  8
0
 62
     7
100
AcDb2dPolyline
 66
     1
 10
0.0
 20
0.0
 30
0.0
 71
    11
  0
VERTEX
  5
CE5
100
AcDbEntity
  8
0
100
AcDbVertex
100
AcDb2dVertex
 10
5204.510254
 20
3017.232666
 30
0.0
  0
VERTEX
  5
CE6
100
AcDbEntity
  8
0
100
AcDbVertex
100
AcDb2dVertex
 10
5205.726074
 20
3017.442627
 30
0.0
  0
VERTEX
  5
CE7
100
AcDbEntity
  8
0
100
AcDbVertex
100
AcDb2dVertex
 10
5206.846191
 20
3018.060059
 30
0.0
  0
VERTEX
  5
CE8
100
AcDbEntity
  8
0
100
AcDbVertex
100
AcDb2dVertex
 10
5207.781738
 20
3019.052002
 30
0.0
  0
VERTEX
  5
CE9
100
AcDbEntity
  8
0
100
AcDbVertex
100
AcDb2dVertex
 10
5208.439453
 20
3020.353271
 30
0.0
  0
VERTEX
  5
CEA
100
AcDbEntity
  8
0
100
AcDbVertex
100
AcDb2dVertex
 10
5208.737793
 20
3021.854492
 30
0.0
  0
VERTEX
  5
CEB
100
AcDbEntity
  8
0
100
AcDbVertex
100
AcDb2dVertex
 10
5208.632324
 20
3023.404541
 30
0.0
  0
VERTEX
  5
CEC
100
AcDbEntity
  8
0
100
AcDbVertex
100
AcDb2dVertex
 10
5208.129395
 20
3024.837402
 30
0.0
  0
VERTEX
  5
CED
100
AcDbEntity
  8
0
100
AcDbVertex
100
AcDb2dVertex
 10
5207.292969
 20
3026.004883
 30
0.0
  0
VERTEX
  5
CEE
100
AcDbEntity
  8
0
100
AcDbVertex
100
AcDb2dVertex
 10
5206.221191
 20
3026.807617
 30
0.0
  0
VERTEX
  5
CEF
100
AcDbEntity
  8
0
100
AcDbVertex
100
AcDb2dVertex
 10
5204.510254
 20
3027.232666
 30
0.0
  0
SEQEND
  5
CF0
100
AcDbEntity
  8
0
  0
POLYLINE
  5
CF1
100
AcDbEntity
  8
0
 62
     7
100
AcDb2dPolyline
 66
     1
 10
0.0
 20
0.0
 30
0.0
 71
     6
  0
VERTEX
  5
CF2
100
AcDbEntity
  8
0
100
AcDbVertex
100
AcDb2dVertex
 10
5200.270996
 20
3022.232666
 30
0.0
  0
VERTEX
  5
CF3
100
AcDbEntity
  8
0
100
AcDbVertex
100
AcDb2dVertex
 10
5200.476074
 20
3020.695801
 30
0.0
  0
VERTEX
  5
CF4
100
AcDbEntity
  8
0
100
AcDbVertex
100
AcDb2dVertex
 10
5201.067383
 20
3019.31543
 30
0.0
  0
VERTEX
  5
CF5
100
AcDbEntity
  8
0
100
AcDbVertex
100
AcDb2dVertex
 10
5201.970703
 20
3018.229004
 30
0.0
  0
VERTEX
  5
CF6
100
AcDbEntity
  8
0
100
AcDbVertex
100
AcDb2dVertex
 10
5203.083496
 20
3017.524414
 30
0.0
  0
VERTEX
  5
CF7
100
AcDbEntity
  8
0
100
AcDbVertex
100
AcDb2dVertex
 10
5204.510254
 20
3017.232666
 30
0.0
  0
SEQEND
  5
CF8
100
AcDbEntity
  8
0
  0
POLYLINE
  5
CF9
100
AcDbEntity
  8
0
 62
     7
100
AcDb2dPolyline
 66
     1
 10
0.0
 20
0.0
 30
0.0
 71
     6
  0
VERTEX
  5
CFA
100
AcDbEntity
  8
0
100
AcDbVertex
100
AcDb2dVertex
 10
5204.510254
 20
3027.232666
 30
0.0
  0
VERTEX
  5
CFB
100
AcDbEntity
  8
0
100
AcDbVertex
100
AcDb2dVertex
 10
5203.294434
 20
3027.022705
 30
0.0
  0
VERTEX
  5
CFC
100
AcDbEntity
  8
0
100
AcDbVertex
100
AcDb2dVertex
 10
5202.174805
 20
3026.405273
 30
0.0
  0
VERTEX
  5
CFD
100
AcDbEntity
  8
0
100
AcDbVertex
100
AcDb2dVertex
 10
5201.23877
 20
3025.413086
 30
0.0
  0
VERTEX
  5
CFE
100
AcDbEntity
  8
0
100
AcDbVertex
100
AcDb2dVertex
 10
5200.581543
 20
3024.111816
 30
0.0
  0
VERTEX
  5
CFF
100
AcDbEntity
  8
0
100
AcDbVertex
100
AcDb2dVertex
 10
5200.270996
 20
3022.232666
 30
0.0
  0
SEQEND
  5
D00
100
AcDbEntity
  8
0
  0
LINE
  5
D01
100
AcDbEntity
  8
0
 62
     7
100
AcDbLine
 10
4552.105469
 20
3556.232666
 30
0.0
 11
5268.105469
 21
3556.232666
 31
0.0
210
0.0
220
0.0
230
1.0
  0
LINE
  5
D02
100
AcDbEntity
  8
0
 62
     7
 48
0.225
100
AcDbLine
 10
4543.105469
 20
3547.232666
 30
0.0
 11
4543.105469
 21
3538.232666
 31
0.0
210
0.0
220
0.0
230
1.0
  0
LINE
  5
D03
100
AcDbEntity
  8
0
 62
     7
 48
0.225
100
AcDbLine
 10
5268.105469
 20
3547.232666
 30
0.0
 11
5268.105469
 21
3538.232666
 31
0.0
210
0.0
220
0.0
230
1.0
  0
LINE
  5
D04
100
AcDbEntity
  8
0
 62
     7
 48
0.225
100
AcDbLine
 10
5268.105469
 20
3547.232666
 30
0.0
 11
5268.105469
 21
3556.232666
 31
0.0
210
0.0
220
0.0
230
1.0
  0
ARC
  5
D05
100
AcDbEntity
  8
0
 62
     7
100
AcDbCircle
 10
4552.105469
 20
3547.232666
 30
0.0
 40
9.000001
210
0.0
220
0.0
230
1.0
100
AcDbArc
 50
90.000003
 51
180.000009
  0
LINE
  5
D06
100
AcDbEntity
  8
0
 62
     7
100
AcDbLine
 10
4962.605469
 20
2488.232422
 30
0.0
 11
4899.105469
 21
2488.232422
 31
0.0
210
0.0
220
0.0
230
1.0
  0
LINE
  5
D07
100
AcDbEntity
  8
0
 62
     7
100
AcDbLine
 10
5026.105469
 20
2488.232422
 30
0.0
 11
4962.605469
 21
2488.232422
 31
0.0
210
0.0
220
0.0
230
1.0
  0
LINE
  5
D08
100
AcDbEntity
  8
0
 62
     7
100
AcDbLine
 10
4962.605469
 20
2481.232422
 30
0.0
 11
4899.105469
 21
2481.232422
 31
0.0
210
0.0
220
0.0
230
1.0
  0
LINE
  5
D09
100
AcDbEntity
  8
0
 62
     7
100
AcDbLine
 10
5026.105469
 20
2481.232422
 30
0.0
 11
4962.605469
 21
2481.232422
 31
0.0
210
0.0
220
0.0
230
1.0
  0
LINE
  5
D0A
100
AcDbEntity
  8
0
 62
     7
100
AcDbLine
 10
4962.605469
 20
2476.232422
 30
0.0
 11
4904.105469
 21
2476.232422
 31
0.0
210
0.0
220
0.0
230
1.0
  0
LINE
  5
D0B
100
AcDbEntity
  8
0
 62
     7
100
AcDbLine
 10
5021.105469
 20
2476.232422
 30
0.0
 11
4962.605469
 21
2476.232422
 31
0.0
210
0.0
220
0.0
230
1.0
  0
LINE
  5
D0C
100
AcDbEntity
  8
0
 62
     7
 48
0.175
100
AcDbLine
 10
4899.105469
 20
2481.232422
 30
0.0
 11
4899.105469
 21
2488.232422
 31
0.0
210
0.0
220
0.0
230
1.0
  0
LINE
  5
D0D
100
AcDbEntity
  8
0
 62
     7
 48
0.175
100
AcDbLine
 10
5026.105469
 20
2481.232422
 30
0.0
 11
5026.105469
 21
2488.232422
 31
0.0
210
0.0
220
0.0
230
1.0
  0
LINE
  5
D0E
100
AcDbEntity
  8
0
 62
     7
 48
0.176777
100
AcDbLine
 10
4904.105469
 20
2476.232422
 30
0.0
 11
4899.105469
 21
2481.232422
 31
0.0
210
0.0
220
0.0
230
1.0
  0
LINE
  5
D0F
100
AcDbEntity
  8
0
 62
     7
 48
0.176777
100
AcDbLine
 10
5021.105469
 20
2476.232422
 30
0.0
 11
5026.105469
 21
2481.232422
 31
0.0
210
0.0
220
0.0
230
1.0
  0
LINE
  5
D10
100
AcDbEntity
  8
0
 62
     7
100
AcDbLine
 10
4616.605469
 20
2488.232422
 30
0.0
 11
4553.105469
 21
2488.232422
 31
0.0
210
0.0
220
0.0
230
1.0
  0
LINE
  5
D11
100
AcDbEntity
  8
0
 62
     7
100
AcDbLine
 10
4680.105469
 20
2488.232422
 30
0.0
 11
4616.605469
 21
2488.232422
 31
0.0
210
0.0
220
0.0
230
1.0
  0
LINE
  5
D12
100
AcDbEntity
  8
0
 62
     7
100
AcDbLine
 10
4616.605469
 20
2481.232422
 30
0.0
 11
4553.105469
 21
2481.232422
 31
0.0
210
0.0
220
0.0
230
1.0
  0
LINE
  5
D13
100
AcDbEntity
  8
0
 62
     7
100
AcDbLine
 10
4680.105469
 20
2481.232422
 30
0.0
 11
4616.605469
 21
2481.232422
 31
0.0
210
0.0
220
0.0
230
1.0
  0
LINE
  5
D14
100
AcDbEntity
  8
0
 62
     7
100
AcDbLine
 10
4616.605469
 20
2476.232422
 30
0.0
 11
4558.105469
 21
2476.232422
 31
0.0
210
0.0
220
0.0
230
1.0
  0
LINE
  5
D15
100
AcDbEntity
  8
0
 62
     7
100
AcDbLine
 10
4675.105469
 20
2476.232422
 30
0.0
 11
4616.605469
 21
2476.232422
 31
0.0
210
0.0
220
0.0
230
1.0
  0
LINE
  5
D16
100
AcDbEntity
  8
0
 62
     7
 48
0.175
100
AcDbLine
 10
4553.105469
 20
2481.232422
 30
0.0
 11
4553.105469
 21
2488.232422
 31
0.0
210
0.0
220
0.0
230
1.0
  0
LINE
  5
D17
100
AcDbEntity
  8
0
 62
     7
 48
0.175
100
AcDbLine
 10
4680.105469
 20
2481.232422
 30
0.0
 11
4680.105469
 21
2488.232422
 31
0.0
210
0.0
220
0.0
230
1.0
  0
LINE
  5
D18
100
AcDbEntity
  8
0
 62
     7
 48
0.176777
100
AcDbLine
 10
4558.105469
 20
2476.232422
 30
0.0
 11
4553.105469
 21
2481.232422
 31
0.0
210
0.0
220
0.0
230
1.0
  0
LINE
  5
D19
100
AcDbEntity
  8
0
 62
     7
 48
0.176777
100
AcDbLine
 10
4675.105469
 20
2476.232422
 30
0.0
 11
4680.105469
 21
2481.232422
 31
0.0
210
0.0
220
0.0
230
1.0
  0
LINE
  5
D1A
100
AcDbEntity
  8
0
 62
     7
100
AcDbLine
 10
5194.605469
 20
2488.232422
 30
0.0
 11
5131.105469
 21
2488.232422
 31
0.0
210
0.0
220
0.0
230
1.0
  0
LINE
  5
D1B
100
AcDbEntity
  8
0
 62
     7
100
AcDbLine
 10
5258.105469
 20
2488.232422
 30
0.0
 11
5194.605469
 21
2488.232422
 31
0.0
210
0.0
220
0.0
230
1.0
  0
LINE
  5
D1C
100
AcDbEntity
  8
0
 62
     7
100
AcDbLine
 10
5194.605469
 20
2481.232422
 30
0.0
 11
5131.105469
 21
2481.232422
 31
0.0
210
0.0
220
0.0
230
1.0
  0
LINE
  5
D1D
100
AcDbEntity
  8
0
 62
     7
100
AcDbLine
 10
5258.105469
 20
2481.232422
 30
0.0
 11
5194.605469
 21
2481.232422
 31
0.0
210
0.0
220
0.0
230
1.0
  0
LINE
  5
D1E
100
AcDbEntity
  8
0
 62
     7
100
AcDbLine
 10
5194.605469
 20
2476.232422
 30
0.0
 11
5136.105469
 21
2476.232422
 31
0.0
210
0.0
220
0.0
230
1.0
  0
LINE
  5
D1F
100
AcDbEntity
  8
0
 62
     7
100
AcDbLine
 10
5253.105469
 20
2476.232422
 30
0.0
 11
5194.605469
 21
2476.232422
 31
0.0
210
0.0
220
0.0
230
1.0
  0
LINE
  5
D20
100
AcDbEntity
  8
0
 62
     7
 48
0.175
100
AcDbLine
 10
5131.105469
 20
2481.232422
 30
0.0
 11
5131.105469
 21
2488.232422
 31
0.0
210
0.0
220
0.0
230
1.0
  0
LINE
  5
D21
100
AcDbEntity
  8
0
 62
     7
 48
0.175
100
AcDbLine
 10
5258.105469
 20
2481.232422
 30
0.0
 11
5258.105469
 21
2488.232422
 31
0.0
210
0.0
220
0.0
230
1.0
  0
LINE
  5
D22
100
AcDbEntity
  8
0
 62
     7
 48
0.176777
100
AcDbLine
 10
5136.105469
 20
2476.232422
 30
0.0
 11
5131.105469
 21
2481.232422
 31
0.0
210
0.0
220
0.0
230
1.0
  0
LINE
  5
D23
100
AcDbEntity
  8
0
 62
     7
 48
0.176777
100
AcDbLine
 10
5253.105469
 20
2476.232422
 30
0.0
 11
5258.105469
 21
2481.232422
 31
0.0
210
0.0
220
0.0
230
1.0
  0
LINE
  5
D24
100
AcDbEntity
  8
0
 62
     7
 48
0.007507
100
AcDbLine
 10
5268.405762
 20
2972.232666
 30
0.0
 11
5268.105469
 21
2972.232666
 31
0.0
210
0.0
220
0.0
230
1.0
  0
LINE
  5
D25
100
AcDbEntity
  8
0
 62
     7
100
AcDbLine
 10
5268.405762
 20
2972.232666
 30
0.0
 11
5268.405762
 21
3072.232666
 31
0.0
210
0.0
220
0.0
230
1.0
  0
LINE
  5
D26
100
AcDbEntity
  8
0
 62
     7
 48
0.007507
100
AcDbLine
 10
5268.405762
 20
3072.232666
 30
0.0
 11
5268.105469
 21
3072.232666
 31
0.0
210
0.0
220
0.0
230
1.0
  0
ENDSEC
  0
SECTION
  2
OBJECTS
  0
DICTIONARY
  5
19
100
AcDbDictionary
  3
ACAD_GROUP
350
1A
  3
ACAD_MLINESTYLE
350
1B
  0
DICTIONARY
  5
1A
102
{ACAD_REACTORS
330
19
102
}
100
AcDbDictionary
  0
DICTIONARY
  5
1B
102
{ACAD_REACTORS
330
19
102
}
100
AcDbDictionary
  3
STANDARD
350
1C
  0
MLINESTYLE
  5
1C
102
{ACAD_REACTORS
330
1B
102
}
100
AcDbMlineStyle
  2
STANDARD
 70
     0
  3

 62
     0
 51
90.0
 52
90.0
 71
     2
 49
0.5
 62
   256
  6
BYLAYER
 49
-0.5
 62
   256
  6
BYLAYER
  0
ENDSEC
  0
EOF
